Slipknot - Vermilion Part 2 Chords & Tabs

 

Vermilion Part 2 Chords & Tabs

Slipknot Chords & Tabs

Version: 5 Type: Tab 0 ratings
1 star 2 stars 3 stars 4 stars 5 stars
comments

Vermilion Part 2 Tab

   
-----------------------------------------------------------------------------
			     Vermilion pt2-SLIPKNOT
-----------------------------------------------------------------------------
Tabbed by:daz
Email:aka_daz@hotmail.com
PLZ TELL ME WHAT U THINK ;)
[ Tab from: http://www.guitartabs.cc/tabs/s/slipknot/vermilion_part_2_tab_ver_5.html ]
Tuning:standard
Intro/verse
Guitar1
e|--------------------------------------------------------------------------|
B|--------------------------------------------------------------------------|
G|--1--3--4-----------------------------------------------------------------|
D|-----------11h2p1----4-4-4-4-4-4-----------------------------------------|
A|--------------------0-2-2-2-2-2-2-----------------------------------------|
E|--------------------------------------------------------------------------|
Guitar2
e|--------------------------------------------------------------------------|
B|--------------------------------------------------------------------------|
G|--------------------------------------------------------------------------|
D|---------------------2-2-2-2-2-2------------------------------------------|
A|--2-2-2-2-2-2-2-2-2--4-4-4-4-4-4------------------------------------------|
E|--4-4-4-4-4-4-4-4-4-------------------------------------------------------|
Chorus
Guitars1&2
e|--------------------------------------------------------------------------|
B|--------------------------------------------------------------------------|
G|--------------------------------------------------------------------------|
D|--2-2-2-2-2-2--4-4-4-4-4-4-4-4-4------------------------------------------|
A|--0-0-0-0-0-0--2-2-2-2-2-2-2-2-2------------------------------------------|
E|--------------------------------------------------------------------------|
(I won't let this build up...)
Guitar1
e|-----2-3-2-0---2-3-2-0----2-3-2-0-----------------------------------------|
B|---2---------2----------2-------------------------------------------------|
G|--------------------------------------------------------------------------|
D|--------------------------------------------------------------------------|
A|--------------------------------------------------------------------------|
E|--------------------------------------------------------------------------|
Not sure 'bout this bit
Guitar 2
e|----0----------0----------0-----------------------------------------------|
B|--0---2-3-2--0---2-3-2--0---2-3-2-----------------------------------------|
G|--------------------------------------------------------------------------|
D|--------------------------------------------------------------------------|
A|--------------------------------------------------------------------------|
E|--------------------------------------------------------------------------|
Ending
Both guitars
e|--------------------------------------------------------------------------|
B|----------17--16----------------------------------------------------------|
G|--13--15------------------------------------------------------------------|
D|--------------------------------------------------------------------------|
A|--------------------------------------------------------------------------|
E|--------------------------------------------------------------------------|


| /  slide up
| \  slide down
| h  hammer-on
| p  pull-off
| ~  vibrato
| +  harmonic
| x  Mute note
=============================================================================
Comments