Slipknot - Vermilion Part 2 Chords & Tabs

 

Vermilion Part 2 Chords & Tabs

Slipknot Chords & Tabs

Version: 3 Type: Tab 0 ratings
1 star 2 stars 3 stars 4 stars 5 stars
comments

Vermilion Part 2 Tab

   
http://ultimate-guitar.com
Artist: Slipknot
Song: Vermillion Part Two
Album: Vol. 3: The Subliminal Verses
Tabber: MudAnarchy [squall_inside@hotmail.com]
Tuning: B-E-A-D-F#-B

Verse: 

Guitar One:
|--------------------|
|--------------------|
|6-8-----------------|
|----7-6----------2--|
|-----------------2--|
|-----------------0--|

Guitar Two:
|--------------------|
|--------------------|
|6--6--6-------------|
|6--6--6-6-7-6-0--2--|
|4--4--4---4-4----2--|
|-----------------0--|


Pre-Chorus

Guitars One and Two:
|2--2--2--2-----------|
|3--3--3--3-----------|
|2--2--2--2---1--1-1--|
|-------------2--3-2--|
|-------------2--2-2--|
|-------------0--0-0--|
to do....     sick


Chorus
[ Tab from: http://www.guitartabs.cc/tabs/s/slipknot/vermilion_part_2_tab_ver_3.html ]
Guitar One:
|------------------------------------------------|
|------------------------------------------------|
|5-5---------4-4---------------------------------|
|5-5---------4-4---------2-2---------5-5---------|
|3-3---------2-2---------2-2---------5-5---------|
|------------------------0-0---------3-3---------|

Guitar Two:
|----3-2-3-2-----3-2-3-2-----3-2-3-2-----3-2-3-2-|
|------------------------------------------------|
|------------------------------------------------|
|------------------------------------------------|
|------------------------------------------------|
|------------------------------------------------|

Guitar Three (optional)
|0----------------------------7--------8-------7-|
|------------------------------------------------|
|------------------------------------------------|
|------------------------------------------------|
|------------------------------------------------|
|------------------------------------------------|
You need to listen closely to figure out the exact rhythm


Bridge:

I'm not completely sure about what the guitar is playing, but here's
the violin melody.

|-----------------|----------|
|-----------------|----------|
|-----------------|----------|
|2-4-5------------|-2---7--9-|
|------3-5--9-7-6-|----------|
|-----------------|----------|
Comments