Slipknot - Vermilion Part 2 Chords & Tabs

 

Vermilion Part 2 Chords & Tabs

Slipknot Chords & Tabs

Version: 1 Type: Tab 0 ratings
1 star 2 stars 3 stars 4 stars 5 stars
comments

Vermilion Part 2 Tab

   
SLipknot
-Vermillion Pt. 2
Volume 3: The Subliminal Verses

Tuning: Eb Ab Db Gb Bb Eb


The main riff is basically just in the open chord Am and C.

The strumming is pretty close but figure it out yourself if u want to make it sound more perfect


Opening/Verse - Riff 1
--------------------------------------------------|
-11-44-11-11-1--1-----------------111-1-1111------|
-22-22-22-22-2--2-----------------000-0-0000------|
-22-22-33-22-2h33-----------------222-2-2222------|
-00-00-00-00-0--0-----------------333-3/2222------|
----------------------------------000-0-0000------|
 Am                               C
"She seemed dressed in all of me--Stretched across my shame"

Riff 2
-------------------------------------------|
-------------------------------------------|
-3333333333333333333333333333/5555555555---| (not the exact number of strums)
-3333333333333333333333333333/5555555555---| (figure it out yourself)
-1111111111111111111111111111/3333333333---|
-------------------------------------------|
"Well I don't know what to do, When she makes me sad"


Riff3
-444-333-333-333---|
-444-333-444-333---|
-555-444-555-444---|
-666-555-555-555---|
-666-555-333-555---|
-444-333-----333---|

(or if you wanna get technical)
Riff 3.5
-----------------------------------|
---4----------------3---4----------|
-----5---5----4---4-------5---5----|
-6-----6---5----5-----5-----5------|
-6---------5----------3------------|
-4---------3-----------------------|

"But I won't let this build up inside me"
..............................................
[ Tab from: http://www.guitartabs.cc/tabs/s/slipknot/vermilion_part_2_tab.html ]
She seems dressed in all of me,         \
Stretched across my shame,               \
All the torment and the pain,             \
Leaked through and covered me,             > Riff 1
I'd do anything to have her to myslelf,   /
Just to have her for myself,             /
Now I Don't know what to do.            /

I don't know what to do,   \
When she makes me sad.     /Riff 2

She is everything to me,                      \
The unrequited dream,                          \
A song that no one sings,                       \
The unattainable,                                > Riff 1
She's a myth that I have to believe in,         /
All I need to make it real is one more reason, /
I don't know what to do.                      /

I don't know what to do, \ Riff 2
When she makes me sad.   /

But I won't let this build up inside of me >Riff 3 or Riff 3.5

I catch in my throat,   \
Choke,                   \
Torn into pieces,         \
I won't,                   > Riff 3
No,                       /
I don't want to be this, /

But I won't let this build up inside of me.  \  Riff 3
(Won't let this build up inside of me)       /  or Riff 3.5

(won't let this build up inside of me)  \
She isn't real,                          \
(won't let this build up inside of me)    > Riff 1
I can't make her real,                   /
(won't let this build up inside of me)  /
.......................................

The ending part is done on the piano but you can also play it on guitar.

----------15-14--|
-12-15-----------|
-----------------|
-----------------|
-----------------|
-----------------|

This is a wicked song.  I never thought Slipknot would make a good acoustic song and 
did.  The CD is awesome, I reccommend if you don't have it, BUY IT!!!  It blows the other 
clearly out of the water.

Tabbed by Jon Duch
Comments