Slipknot - Three Nil Chords & Tabs

 

Three Nil Chords & Tabs

Slipknot Chords & Tabs

Version: 1 Type: Bass Tab 0 ratings
1 star 2 stars 3 stars 4 stars 5 stars
comments

Three Nil Bass Tab

   
Mxtabs [http://www.mxtabs.net]
Band: SlipKnot
Song: Three Nil
Tabbed By: MODUS OPERENDI
JAMIE CUSHION

Keys
.=Palm Mute
b=Bend
t=Tremolo Picking
h=hammer-on
p=pulloff
\=slide up
/=slide down
*=Natural Harmonic

Intro  pt1 AND pt.2
|----------------------------------|
|----------------------------------|
|----------------------------------|
|----------------------------------|
|-1/9-0-3-2------------------------|

Pre-Verse Riff

|----------------------------------------------|
|----------------------------------------------|
|----------------------------------------------|  X8
|----------------------------------------------|
|-0-3\2-0-1b-0--0-3\2-0-1b-0-00-1b-0-----------|

Pre-Verse riff 2

|------------------------------------------|
|------------------------------------------|
|------------------------------------------|
|------------------------------------------|
|-1\4h3p-h1p0p-0-3-6-3-0-4-7-4-0-3---------|

 Pre-Verse Riff 3

|------------------------------------------|
|------------------------------------------|
|------------------------------------------|
|------------------------------------------|
|-0-4-3-0-1-0-0-3-6-3-0-4-7-4-0-3----------|

Verse Riff
|------------------------------------------|
|------------------------------------------|
|------------------------------------------|
|------------------------------------------|
|-0-4/3-0-1p0-0-3-6-3-0-4-7-4-0-3----------|

Pre-Chorus Fill In
|-------------------------------------------------------------|
|-------------------------------------------------------------|
|-------------------------------------------------------------|
|-------------------------------------------------------------|
|-0-4-3-1-0----0-1-0--0-1-0-4-3-1-0--0-1-0-0--0-4-3-0---------|

Pre-Verse Riff
|----------------------------------------------------------------|
|----------------------------------------------------------------|
|----------------------------------------------------------------|
|----------------------------------------------------------------|
|-0-3\2-0-1b-0--0-3\2-0-1b-0-00-1b-0-0-3\2-0-1b-0-0-3\2-0-0------|

Pre-Chorus Riff 2
|-------------------------------------------------------------|
|-------------------------------------------------------------|
|-------------------------------------------------------------|
|---5-6-----6-9-5---------------------------------------------|  X2
|-2-----3-5---------------------------------------------------|

|-------------------------------------------------------------|
|-------------------------------------------------------------|
|-------------------------------------------------------------|
|---5-6-----8--9--5-------------------------------------------| X2
|-5-----6-8---------------------------------------------------|

|-------------------------------------------------------------|
|-------------------------------------------------------------|
|-------------------------------------------------------------|
|---5-6-----6-9-5---------------------------------------------|  X2
|-2-----3-5---------------------------------------------------|

|-------------------------------------------------------------|
|-------------------------------------------------------------|
|-------------------------------------------------------------|
|---5-6-----8--9--5-------------------------------------------| X2
|-5-----6-8---------------------------------------------------|

Pre-Verse Riff
|------------------------------------------|
|------------------------------------------|
|------------------------------------------|  X2
|------------------------------------------|
|-0-3\2-0-1b-0--0-3\2-0-1b-0-00-1b-0-------|

 Pre-Verse Riff
|-------------------------------------------------------|
|-------------------------------------------------------|
|-------------------------------------------------------|
|-------------------------------------------------------|
|-0-3\2-0-1b-0--0-3\2-0-1b-0-00--00--00-0-5-0-6/--------|

Verse Riff 2
|-------------------------------------------------------|
|-------------------------------------------------------|
|-------------------------------------------------------|
|-------------------------------------------------------|
|-1-4-3-1p-0-0-4-3-1p-0-0-1p-0--------------------------|

End The Riff
|-------------------------------------------------------|
|-------------------------------------------------------|
|-------------------------------------------------------|
|-------------------------------------------------------|
|-1-4-3-------------------------------------------------|
[ Tab from: http://www.guitartabs.cc/tabs/s/slipknot/three_nil_btab.html ]
 Pre-Chorus Riff
|---------------------------------------------------------|
|---------------------------------------------------------|
|---------------------------------------------------------| X2
|---5-6-----6-9-5-----------------------------------------|
|-4-----3-5-----------------------------------------------|

|---------------------------------------------------------|
|---------------------------------------------------------|
|----12-13--------10-11-----------------------------------| X2
|-7--------12-13-------11---------------------------------|
|---------------------------------------------------------|

|-------------------------------------------------------------|
|-------------------------------------------------------------|
|-------------------------------------------------------------|
|---5-6-----6-9-5---------------------------------------------|  X2
|-2-----3-5---------------------------------------------------|

|-------------------------------------------------------------|
|-------------------------------------------------------------|
|-------------------------------------------------------------|
|---5-6-----8--9--5-------------------------------------------| X2
|-5-----6-8---------------------------------------------------|

Chorus
|------------------------------------------------------------------------------------|
|------------------------------------------------------------------------------------|
|------------------------------------------------------------------------------------|
|------------------------------------------------------------------------------------|
|-10-0-0000000000-10-0-0000000000--2-3-3333333333\5-6-6666666666---------------------|

|---------------------------------------------------------------------------------------|
|---------------------------------------------------------------------------------------|
|---------------------------------------------------------------------------------------|
|-----------3\555/33-----------3\555/33------------------------------------3\*12--------|
|-10-0-0000----------10-0-0000----------2-3-3333333333\5-6-6666666666-------------------|

Breakdown
|----------------------------------|
|----------------------------------|
|----------------------------------|
|----------------------------------|
|-1/9-0-3-2------------------------|

Bridge Riff
|----------------------------------|
|----------------------------------|
|----------------------------------|
|----------------------------------|
|-1-3-0-3-0-5-0-6------------------|

Bridge Riff 2
|----------------------------------|
|----------------------------------|
|----------------------------------|
|----------------------------------|
|-1\3-0-3-0-5-3-6------------------|

|----------------------------------|
|----------------------------------|
|----------------------------------|
|---------555\6/444----------------|
|-1\3-0-3--------------------------|

|------------------------------------------------------------------------------------|
|------------------------------------------------------------------------------------|
|------------------------------------------------------------------------------------|
|------------------------------------------------------------------------------------|
|-10-0-0000000000-10-0-0000000000--2-3-3333333333\5-6-6666666666---------------------|

|---------------------------------------------------------------------------------------|
|---------------------------------------------------------------------------------------|
|---------------------------------------------------------------------------------------|
|-----------3\555/33-----------3\555/33------------------------------------3\*12--------|
|-10-0-0000----------10-0-0000----------2-3-3333333333\5-6-6666666666-------------------|

|---------------------------------------------------------|
|---------------------------------------------------------|
|---------------------------------------------------------| X4
|---5-6-----6-9-5-----------------------------------------|
|-4-----6-9-----------------------------------------------|

|---------------------------------------------------------|
|---------------------------------------------------------|
|----12-13--------10-11-----------------------------------| X4
|-7--------12-13-------11---------------------------------|
|---------------------------------------------------------|

Outro Riff
|-------------------------------------------------------------|
|-------------------------------------------------------------|
|-------------------------------------------------------------|
|-------------------------------------------------------------|
|-1\3-0-3-1-5-3-6---------------------------------------------|

End
|-------------------------------------------------------------|
|-------------------------------------------------------------|
|-------------------------------------------------------------|
|-------------------------------------------------------------|
|-1\3-0-3-1-5-3-6---------------------------------------------|
Comments