Slipknot - The Shape Chords & Tabs

 

The Shape Chords & Tabs

Slipknot Chords & Tabs

Version: 1 Type: Tab 0 ratings
1 star 2 stars 3 stars 4 stars 5 stars
comments

The Shape Tab

   
The Shape-Slipknot
Iowa

Drop B:
B F# B E G# C#

x5
e------------------------------------------
b------------------------------------------
g------------------------------------------
d---8/13-------------8/13------------------
a-0-8/13-0-1/3-1-0---8/13-0-1/3-3/4--------
d-0-8/13-0-1/3-1-0-x-8/13-0-1/3-3/4--------

Fig 1. x4

e------------------------------------------
b------------------------------------------
g------------------------------------------
d---8/13-------------8/13------------------
a-0-8/13-0-1/3-1-0---8/13-0-1/3-3/4--------
d-0-8/13-0-1/3-1-0-x-8/13-0-1/3-3/4--------

Verses
pick scrapes w/ delay
e------------------------------------------
b------------------------------------------
g------------------------------------------
d------------------------------------------
a------------------------------------------
d-x~~~~~~~~-x~~~~~~~~~x~~~~~~~~~~x~~~~~~~~-

Chorus:

e-----------------------------------------------------------------
b-----------------------------------------------------------------
g-----------------------------------------------------------------
d-----------------------------------------------------------------
a-9--8--9---------------------------------------------------------
d-9--8--9--4444-4444-33333-3333-4444-3333-4444-6666-5555-6666-8888

Interlude: w/ wah
[ Tab from: http://www.guitartabs.cc/tabs/s/slipknot/the_shape_tab.html ]
e-----------------------------------------------------------------
b-----------------------------------------------------------------
g-----8p7-8p7---7-----8p7-8p7-----8p7-8p7-8p7---------------------
d-----------------6---------------------------6-------------------
a-6-----------6-----5---------7-7---------------5-----------------
d-----------------------------------------------------------------

Interlude 2:

Riff A x2

e-----------------------------------------------------------------
b-----------------------------------------------------------------
g-----------------------------------------------------------------
d-14-13---12-13-14-13---------------------------------------------
a------------------------12-13-14-13------------------------------
d-------------------------------------14-13---12-13-14-13--0-1-2-1

w/ Riff A x2

e-----------------------------------------------------------------
b-----------------------------------------------------------------
g-----------------------------------------------------------------
d-14-13---12-13-14-13---------------------------------------------
a------------------------12-13-14-13--14-13---12-13-14-13---------
d----------------------------------------------------------0-1-2-1

Bridge Half Time Feel x3

e-----------------------------------------------------------------
b-----------------------------------------------------------------
g-----------------------------------------------------------------
d-----------------------------------------------------------------
a-2-1----0-1-2-1--0-1-2-1----2-1----0-1-2-1--0-1-2-1--------------
d-2-1----0-1-2-1--0-1-2-1----2-1----0-1-2-1--0-1-2-1--------------

Fig 4.

e-----------------------------------------------------------------
b-----------------------------------------------------------------
g-----------------------------------------------------------------
d-----------------------------------------------------------------
a-2p1----0-1-2-1---0-1-2-1----2p1----0-1-2-1---0-1-2-1------------
d-2p1----0-1-2-1---0-1-2-1----2p1----0-1-2-1---0-1-2-1------------

thatís all

trevor jones
timmy91199@yahoo.ca
Comments