Slipknot - The Heretic Anthem Chords & Tabs

 

The Heretic Anthem Chords & Tabs

Slipknot Chords & Tabs

Version: 1 Type: Bass Tab 0 ratings
1 star 2 stars 3 stars 4 stars 5 stars
comments

The Heretic Anthem Bass Tab

   
Slipknot  The Heretic Anthem

Same Tuning here aswell as with People = *** dropped, helps if you have a 5 string.

D|
A|
E|
A| \1--0-0-0-1--0-0-1--0-0-1--0-0-1--0-0-1--0-0-1--0-0-1--0-0-1--0-0-1

D|
A|
E|                           (X12)
A|0-0-1

D|
A|
E|                            (X1)
A|0-0-1-1-1-1

D|--------------------------------------
A|----------------0---------------------
E|-------4-5--------------------------- (X8)
A|0--1--------------4-0-3-0-2-------

D|
A|
E| (X8)
A|0-1-0-3-0-5-0-7

D|
A|
E| (X8)
A|0-0-0-1-0-0-1-0-3-4-3

D|
A|
E| (X8)
A|0-1-0-3-0-5-0-7

D|
A|
E| (X1)
A|12\--12\--12\
[ Tab from: http://www.guitartabs.cc/tabs/s/slipknot/the_heretic_anthem_btab.html ]
D|
A|
E|---------------------------------1-----------------------1-0-----  (X4)
A|0-0-0-0-1-0-0-0-0-0-1-0-0-1-0-0------0-0-0-0-1-0-0-0-0---------2-1

D|
A|
E|-----------------------------1--------------1-0-------(X2)
A|0-0-0-0-1-------0-0-0-1-0-0----0-0-0-0-1----------2-1

D|
A|
E|----------------------------1-------------
A|0-0-0-0-1-------0-0-0-1-0-0----0-0-0-0-1 (X4)

D|
A|
E|
A|2~-----2/ 2\ 2~----2/(slow)

D|
A|
E|    (X4)
A|0-1-0-3-0-5-0-7

D|
A|
E|---------------------------------1----------------------1-0----- (X4)
A|0-0-0-0-1-0-0-0-0-0-1-0-0-1-0-0-----0-0-0-0-1-0-0-0-0---------2-1

D|
A|
E|---------------------------------1----------------------1-0----  (X1)
A|0-0-0-0-1-0-0-0-0-0-1-0-0-1-0-0-----0-0-0-0-1-0-0-0-0---------2
====
Comments