Slipknot - The Blister Exists Chords & Tabs

 

The Blister Exists Chords & Tabs

Slipknot Chords & Tabs

Version: 5 Type: Tab 0 ratings
1 star 2 stars 3 stars 4 stars 5 stars
comments

The Blister Exists Tab

   
The Blister Exists - Slipknot
Tabbed by: Harv052

What makes this tab a little different is the Mick Thompson solo during the chorus.
You'll notice that i don't use any sliding and i don't think Mick does either...It
might sound weird at first, but once you play all the notes properly, you'll find
that it sounds a lot better than any sliding tab you've seen (play them slow at first
to get the hang of it)! The complete tab might not be accurate, but if you know the
song, you won't get too lost. For the rest, use your imagination or improvise!!!

tuning:B,F#,B,E,G#,C#

.=palm mute
~=vibrato
h=hammer on
p=pull off
B=bend

Riff 1
|-------------------------| 
|-------------------------| 
|-------------------------|X16
|-------------------------| 
|-------------------------|
|--12b--0--0--0--0--0--0--|
   ~~~     .  .     .  .  

Riff 2
|-------------------|
|-------------------|
|-------------------|
|-------------------|
|-------------------|
|--12b--0--0--0--0--|
   ~~~     .  .

Riff 3
|----------------------------------------------------| 
|----------------------------------------------------|
|----------------------------------------------------|X8
|-------------------------------------------------1--|
|-----------------------------------------------1----|
|--0--0--0--0--0--1-1-1-1-1-1--0--0--0--0--0--1------| 
      .  .     .                  .  .     .

Riff 4
|----------------------|
|----------------------|
|----------------------|X8
|----------------------|
|--0--0--0--1---3h4p3--|
|--0--0--0--1---3h4p3--|
      .  .  
[ Tab from: http://www.guitartabs.cc/tabs/s/slipknot/the_blister_exists_tab_ver_5.html ]
Riff 5 (all tremelo pick)(notes between parentheses have to be played fast)
|-------------------------------------|
|-------------------------------------|
|----------19-----(20-19-17-----------|
|--------------------------20-19-17)--|
|--18--17-----------------------------|
|-------------------------------------|

|----------------------------------------------------|
|----------------------------------------------------|
|-----------19------------17-19-20-19-17-------------|
|----------------(17-19-20----------------20-19-17)--|
|--18--17--------------------------------------------|
|----------------------------------------------------|

Riff4X8
Riff5
Riff3X4
Riff5
Riff4X4

Riff 6
|------------------------|
|------------------------|
|------------------------|
|--7---5h7p5-------------|
|-----------------3---5--|
|------------------------|
   ~   ~~~~~      ~   ~

Riff 7
|----------------------------------|
|----------------------------------|
|----------------------------------|X8
|----------------------------------|
|--2--3--0-------------------------|
|--2--3--0----6-5-6-5-0-3---3-3-5--|
                        ~
Riff 8
|--------|
|--------|
|--------|
|--------|
|--1--0--|
|--1--0--|

Riff 9
|----------------------------------------------------|
|----------------------------------------------------|
|----------------------------------------------------|X4
|-------------------------------------------------8--|
|--1--0-------------------------------------------6--|
|--1--0--------0-2-3-0-3-5-0-5-6-0----0-0-3-0-0-0----|
               . . . . . . . . . .    . .     . .

Riff5X4
Riff4X8
Riff6X2
Riff7X16
Riff9X4
Riff8
Comments