Slipknot - The Blister Exists Chords & Tabs

 

The Blister Exists Chords & Tabs

Slipknot Chords & Tabs

Version: 4 Type: Tab 0 ratings
1 star 2 stars 3 stars 4 stars 5 stars
comments

The Blister Exists Tab

   
Hey maggots!!!this song isnt that hard if ur experienced enough. Just listen to the song 
once u get the tab try to play with the song, it helped me. have fun and if u got 
email me @ NickIorfida@msn.com
stay (SIC) MAGGOTS!!!!


tunning:B,F#,B,E,G#,C#

bend=b under note
tremelo pick(really fast)=t under staff
palm mute= - under note
hammer on= / between notes
regular touch harmonics= * next to note

intro gtr one(jim)
C#-----------------------------------------------------|
G#-----------------------------------------------------|
E--------------------------------17x-------------------|
B--12-0000---------------------------------------------|
F#-12-0000---------------------------------------------|
B--12-0000---------------------------------------------|
   b   --

intro gtr 2(mick)micks part is confusing because he only does it on certain beats. i 
the beats below the staff and there are lines are above the beats in which mick plays.if 
listen it sounds more bassy when they both play.
C#-----------------------------------------------------|
G#-----------------------------------------------------|
E------------------------------------------------------|
B------------------------------------------------------|
F#-----------------------------------------------------|
B----|-------|-------|-|--|--|--|--|--|--|--|----------|
     1 2 3 4 5 6 7 8 9 10 11 12 13 14 15 16 17


Riff one (both)
C#-----------------------------------------------------|
G#-----------------------------------------------------|
E--------------------------------8x--------------------|
B--0000-1111-0000---1----------------------------------|
F#-0000-1111-0000--1-----------------------------------|
B--0000-1111-0000-1------------------------------------|
    --  tttt  --

riff 2 (both)
C#-----------------------------------------------------|
G#-----------------------------------------------------|
E--------------------------------8x--------------------|
B---000-1-3/4-3----------------------------------------|
F#--000-1-3/4-3----------------------------------------|
B---000-1-3/4-3----------------------------------------|
     --

verses(gtr 2/mick)
C#-----------------------------------------------------|
G#-----------------------------------------------------|
E--------------------------------8x--------------------|
B--0000-1111-0000---1----------------------------------|
F#-0000-1111-0000--1-----------------------------------|
B--0000-1111-0000-1------------------------------------|
    --  tttt  --

verses (gtr 1/jim)
C#-----------------------------------------------------|
G#--3-2-9-10/----3-2-9-10/-----------------------------|
E---------slide------right here you slide---------4x---|
B---------down-------down-then-up-to-ten---------------|
F#-----------------------------------------------------|
B------------------------------------------------------|
    tremelo pick this whole part listen to get it right

pre pre-verse2/pre-chorus 1(both)
C#-----------------------------------------------------|
G#-----------------------------------------------------|
E--------------------------------8x--------------------|
B---000-1-3/4-3----------------------------------------|
F#--000-1-3/4-3----------------------------------------|
B---000-1-3/4-3----------------------------------------|
     --

pre-verse gtr 1 (jim)
C#-----------------------------------------------------|
G#----3-2-9-10/------3-2-9-----------------------------|
E------------slide-------b-----------------------------|
B------------down--------------------------------------|
F#-----------------------------------------------------|
B------------------------------------------------------|
      t t t t t      t t
[ Tab from: http://www.guitartabs.cc/tabs/s/slipknot/the_blister_exists_tab_ver_4.html ]
pre-verse gtr 2 (mick)
C#-----------------------------------------------------|
G#-----------------------------------------------------|
E------------------------------------------------------|
B---0-11-000-------------------------------------------|
F#--0-11-000-------------------------------------------|
B---0-11-000-------------------------------------------|

pre-chorus 2&3 (jim) play twice the 2nd time u play this. play with volume pedal and go 
and down(listen)
C#-----------------------------------------------------|
G#-----------------------------------------------------|
E----14-14-14-14-12-12-12-12-16-16-16-16-18-18-18-18---|
B----xx-xx-xx-xx-xx-xx-xx-xx-xx-xx-xx-xx-xx-xx-xx-xx---|
F#---12-12-12-12-10-10-10-10-14-14-14-14-16-16-16-16---|
B------------------------------------------------------|
 (double digit notes)   (mick plays pre-chorus one)

chorus(both)
C#-----------------------------------------------------|
G#-----------------------------------------------------|
E------------------------------------------------------|
B------------------------------------------------------|
F#-----------------------------------------------------|
B--23-0-6060-03-35-23-0-6060-03-35-23-0-6060-0-35--3-0-|

C#-----------------------------------------------------|
G#-----------------------------------------------------|
E------------------------------------------------------|
B---------------------------------------------1-0------|
F#--------------------------------------------1-0------|
B---6060-03-35-23-0-6060-03-35-23-0-6060-0-35-1-0------|

bridge(mick)this is after 3 times of the drum pattern they play
C#-only----|---------------------------------------------|
G#-play-1st|-----------------------------10x-------------|
E--time----|----------------------8----------------------|
B----------|-1-0---02302353200000-x----------------------|
F#--5*-(5*)|-1-0---02302353200000-6----------------------|
B-(0)------|-1-0---02302353200000------------------------|
                   --------- ----------------------------|

last chorus(both)
C#-----------------------------------------------------|
G#-----------------------------------------------------|
E------------------------------------------------------|
B------------------------------------------------------|
F#-----------------------------------------------------|
B--23-0-6060-03-35-23-0-6060-03-35-23-0-6060-0-35------|

C#-----------------------------------------------------|
G#-----------------------------------------------------|
E------------------------------------------------------|
B------------------------------------------------------|
F#-----------------------------------------------------|
B-3-0---6060-03-35-23-0-6060-03-35-23-0-6060-0-35--3-0-|

C#-----------------------------------------------------|
G#-----------------------------------------------------|
E------------------------------------------------------|
B------------------------------------------------------|
F#-----------------------------------------------------|
B--3-0--6060-03-35-23-0-6060-03-35-23-0-6060-0-333-3-0-|

C#-----------------------------------------------------|
G#-----------------------------------------------------|
E------------------------------------------------------|
B---------------------------------------------1-0------|
F#--------------------------------------------1-0------|
B---6060-03-35-23-0-6060-03-35-23-0-6060-0-35-1-0------|


ending of song
C#-----------------------------------last-time-end-------|
G#-----------------------------10x---like-it-says--------|
E-----------------------8-------------below--------------|
B--1-0---02302353200000-x--------------1-0-(0)-----------|
F#-1-0---02302353200000-6--------------1-0-(0)-----------|
B--1-0---02302353200000----------------1-0-(0)-----------|
         --------- --------------------------------------|

ORDER OF PARTS
intro
riff one
riff two
verse
riff two
pre-chorus
verse 2
riff two
chorus
bridge
riff 2
last chorus
ending of song
Comments