Slipknot - The Blister Exists Chords & Tabs

 

The Blister Exists Chords & Tabs

Slipknot Chords & Tabs

Version: 3 Type: Tab 0 ratings
1 star 2 stars 3 stars 4 stars 5 stars
comments

The Blister Exists Tab

----------------------------------------------------------------------------
			 THE BLISTER EXISTS - Slipknot
----------------------------------------------------------------------------
Tabbed by: ApexGT
Email: apexgt@msn.com
Album: Vol. 3: The Subliminal Verses
Song Length: 5:19

b - bend string up
r - release bend
h - hammer on
p - pull off
/ - slide up
\ - slide down
x - muted, struck string
P.M - palm muted

    This is my first tab.  It's probably not 100% correct, but it does sound
much like the actual song.  Thanks for looking at it, and have fun.

Tuning: Drop D, down 1 1/2 steps ( B F# B E G# C# )

Intro:
|--------------------------|
|--------------------------|
|--------------------------|  
|--------------------------| x17
|--------------------------|
|--12b13r12---0-x-x-0-x-x--|

[0:22]
|---------------------------------------------------------------------|
|---------------------------------------------------------------------|
|---------------------------------------------------------------------|
|---------------------------------------------------------------------| x4
|---------------------------------5---------------------------------3-|
|--0-x-x-0--1-1-1-1--0-x-x-0--0-1----0-x-x-0--1-1-1-1--0-x-x-0--0-1---|

[0:42]
|------------------|
|------------------|
|------------------| 
|--0-x-x-0--2h3p2--| x8
|--0-x-x-0--2h3p2--|
|--0-x-x-0--2h3p2--|



Verse             
[0:52]            (fifteens)                                 (last time)
|-----------------------------------------------------------|-----------|
|--444444-333333-151515151515--15\444444-333333-15--4/15\4--|-15b17-----|
|-----------------------------------------------------------|-----------|
|-----------------------------------------------------------|-----------| x4
|-----------------------------------------------------------|-----------|
|-----------------------------------------------------------|-------15\-|
*On the verse riff, pick the string as you slide

Chorus
[1:12]
|------------------|
|------------------|
|------------------| 
|--0-x-x-0--2h3p2--| x8
|--0-x-x-0--2h3p2--|
|--0-x-x-0--2h3p2--|

[1:22] Verse riff x1
[ Tab from: http://www.guitartabs.cc/tabs/s/slipknot/the_blister_exists_tab_ver_3.html ]
[1:27]
|---------------------------------------------------------------------|
|---------------------------------------------------------------------|
|---------------------------------------------------------------------|
|---------------------------------------------------------------------| x3
|---------------------------------5---------------------------------3-|
|--0-x-x-0--1-1-1-1--0-x-x-0--0-1----0-x-x-0--1-1-1-1--0-x-x-0--0-1---|

[1:37] Add in the Verse riff x1

[1:42] Chorus x8

Insert
[1:52]                     (last time)
|----------------------------|-----|
|----------------------------|-----|
|----------------------------|-----|
|----------------------------|-1-0-| x8 
|----------------------------|-1-0-|
|--0-3-0-6-5-6-5-0-3-3-2-3---|-1-0-|

Bridge
[2:32]  (all 0s, 1s, 2s, and 3s)
|-------------------------------------|
|-------------------------------------|
|-------------------------------------|
|--1-0--------------------------------| x8
|--1-0--------------------------------|
|--1-0--012333210-0-0-3-0-0-0-111111--|
        |----P.M.----|   |---|

[2:52] Add in Verse Riff x4

[3:13] Chorus x16

[3:34] Insert x16

[4:14] Bridge x4

[4:34]
|-------|
|-------|
|-------|
|--1-0--|
|--1-0--|
|--1-0--|

Lyrics:

Bones in the water and dust in my lungs
Absorbing archaic like a sponge
The ultimate way is the way you control
But can you stay if you detach your soul?
Bury the present and squeeze out the past
The ones you endear to never last
Chemical burns and the animalistic
I'm just another hardline pseudo-statistic

Can you feel this?
I'm dying to feel this
Can you feel this?

Blood on the paper and skin on my teeth
Trying to commit on what's beneath
To find the time is to lose the momentum
You learn the lessons and immediately forget them
Automatic and out of my reach
Consult all the waste to find the key
Minimal life and the polysyllabic
I'm just another blank page - push the button, pull the rage

Can you feel this?
I'm dying to feel this
Can you feel this?

I am all, but what am I?
Another number that isn't equal to any of you
I control, but I comply
Pick me apart, then pick up the pieces
I'm uneven

I am the damaged one
All my life and the damage done

Can you feel this?
I'm dying to feel this
Can you feel this?
I'm dying to feel this

I am all, but what am I?
Another number that isn't equal to any of you
I control, but I comply
Pick me apart, then pick up the pieces
I'm uneven
Comments