Slipknot - The Blister Exists Chords & Tabs

 

The Blister Exists Chords & Tabs

Slipknot Chords & Tabs

Version: 1 Type: Tab 5 ratings
1 star 2 stars 3 stars 4 stars 5 stars
comments

The Blister Exists Tab

Song: The Blister Exists
Artist: Slipknot
Album: The Subliminal Verses Vol. 3

Tuning: Dropped B

(0)= palm muting
tr= tremolo picking
sb= slowly bend


Intro:
C#---------------------
G#---------------------
E----------------------
B----------------------     repeat
F#---------------------
B---12~--0--(0)-0--(0)-


Riff 1:
C#------------------------------------------
G#------------------------------------------
E-------------------------------------------
B---0--(0)-0--1-1-1-1-1-1-0--(0)-0--1--1--1-   repeat
F#--0--(0)-0--1-1-1-1-1-1-0--(0)-0--1--1--1-
B---0--(0)-0--1-1-1-1-1-1-0--(0)-0--1--1--1-


Riff 2:
C#----------------
G#----------------
E-----------------
B---0--x-1--3-4-3-    repeat
F#--0--x-1--3-4-3-
B---0--x-1--3-4-3-

[ Tab from: http://www.guitartabs.cc/tabs/s/slipknot/the_blister_exists_tab.html ]
Verse (1st Guitar):
C#---------------------------------------------------
G#---------------------------------------------------
E----------------------------------------------------
B----------------------------------------------------
F#---------------------------------------------------
B---0--(0)-0--13-13-13-13-13-13-0--(0)-0--13--13--13-

Verse (2nd Guitar):
C#---------10tr--------------------------------------
G#---------------------------------------------------
E---8---7-------7tr/19\7-----------------------------   repeat something like that
B----------------------------------------------------
F#---------------------------------------------------
B----------------------------------------------------


Chorus:
C#-------------------------------
G#-------------------------------
E--------------------------------
B--------------------------------   repeat
F#-------------------------------
B---2---3-0---6-5-6-5--3~-3~---3-


Bridge:
C#------------------------------------------------------
G#------------------------------------------------------
E---------------------------------------------------8sb-
B---1sb-0-------0-0-0-0-1-2-3-2-1-0---0-0-1-0--0-0--8sb-   repeat
F#--1sb-0-------0-0-0-0-1-2-3-2-1-0---0-0-1-0--0-0--6sb-
B---1sb-0-------0-0-0-0-1-2-3-2-1-0---0-0-1-0--0-0------
                 -3-   -3-   -3- 


So there you have it...hope it helps you.should be more or less correct.
Comments