Slipknot - Surfacing Chords & Tabs

 

Surfacing Chords & Tabs

Slipknot Chords & Tabs

Version: 9 Type: Tab 0 ratings
1 star 2 stars 3 stars 4 stars 5 stars
comments

Surfacing Tab

By: Patrick Forlin

Guitar 1

E]--19--21-21-21-21-21-21-21
B]--------------------------
G]--------------------------
D]--------------------------
A]--------------------------
E]-------------------------- X8

Guitar 2 Interupts

E]--------------------------
B]--------------------------
G]--------------------------
D]--------------------------
A]--------------------------
E]--2-3--(3)(3)-3-2-3-------X1


E]-------------------------
B]-------------------------
G]-------------------------
D]-------------------------
A]-------------------------
E]--(3)(3)-3-2-3-----------X23

Guitars 1 and 2
[ Tab from: http://www.guitartabs.cc/tabs/s/slipknot/surfacing_tab_ver_9.html ]
E]--------------------------
B]--------------------------
G]--------------------------
D]--------------------------
A]--4/5--(5)(5)-5\4/5-------
E]--2/3--(3)(3)-3\2/3-------X1


E]--------------------------
B]--------------------------
G]--------------------------
D]--------------------------
A]--(5)(5)-5\4/5------------
E]--(3)(3)-3\2/3------------X8

Guitars 1 and 2


E]--------------------------
B]--------------------------
G]--------------------------
D]--------------------------
A]--(5)(5)-5\4--(4)(4)--5---
E]--(3)(3)-3\2--(2)(2)--3---X6


Thats basically it for the intro, the tabs are right, but the number of times done might 
not be, so i suggests listening to the song while playing.
Comments