Slipknot - Surfacing Chords & Tabs

 

Surfacing Chords & Tabs

Slipknot Chords & Tabs

Version: 7 Type: Tab 0 ratings
1 star 2 stars 3 stars 4 stars 5 stars
comments

Surfacing Tab

   
                        'Surfacing'   by SLIPKNOT 
[ Tab from: http://www.guitartabs.cc/tabs/s/slipknot/surfacing_tab_ver_7.html ]
 
My first ever tab kiddies using a tab editor,  
so bear with me.  
It'll probably be wrote wrong,  
But it sounds passable, 
when you play along wth the C.D. 
 
I guessed the tuning for the other strings other than B / F# / B / E, 
but they'll do. 
I have no idea how to write down timings, picking dynamics and all that other stuff, 
so listen to the CD and play the notes I've wrote, and just listen to how they are played. 
 
 
TUNING: B / F# / B / E / B / E 
 
 
INTRO (distortion/fast delay/phaser) 8x     
 
E |--||---17-----------19------||---- 
B |--||------------------------||---- 
E |--||------------------------||---- 
B |--||------------------------||---- 
F#|--||------------------------||---- 
B |--||------------------------||---- 
Guitar 1                            
 
(Distortion)     Gt 2           24x            
E |--||-------------------------||------------ 
B |--||-------------------------||------------ 
E |--||-------------------------||------------ 
B |--||-------------------------||------------ 
F#|--||---0--1--------1--1--1---||------------ 
B-|--||---0--1--------1--1--1---||------------ 
                     l.h.m                                                   
 
 
 
 
FILL    "F**k you all......."                           
                            (BOTH GUITARS)                               
			(distortion) 8x             (distortion)       8x      
E---||-------------------------||-----||-------------------------||----- 
B---||-------------------------||-----||-------------------------||----- 
E---||*-----------------------*||-----||*-----------------------*||----- 
B---||*-----------------------*||-----||*--------------------1--*||----- 
F#--||------0--1-----1--1--1---||-----||------0--1-----1--1--1---||----- 
B---||------0--1-----1--1--1---||-----||------0--1-----1--1--1---||----- 
   L.H.M             *  *                   		 *  * 
 
 
 
 
PRE / VERSE   	(Distortion)                                                  
 
                  8x                     Gt 2  (dist) 8x                 
E---||---17--19---||-----------------------||---------||---------------- 
B---||------------||-----------------------||---------||---------------- 
E---||*----------*||-----------------------||*-------*||---------------- 
B---||*----------*||-----------------------||*-------*||---------------- 
F#--||------------||-----------------------||---------||---------------- 
B---||------------||-----------------------||---12^---||---------------- 
                                    (Play this bit triple time) 
 
 
 
 
CHORUS  "F**k it all, F**k this world......."       x8                            
E---||----------------------------||----------------------------------- 
B---||----------------------------||------------------------------------ 
E---||*--------------------------*||------------------------------------ 
B---||*--------------------------*||------------------------------------ 
F#--||---0--1-----0--0--1---------||------------------------------------ 
B---||---0--1-----0--0--1---------||------------------------------------ 
 
 
 
 
REPEAT VERSE 
 
 
 
REPEAT CHORUS 
 
 
 
GREAT MOSH FILL (!!!)      Guitar 1                                          
E---|--------------------------------------------------------------|---- 
B---|--------------------------------------------------------------|---- 
E---|--------------------------------------------------------------|---- 
B---|--------------------------------------------------------------|---- 
F#--|--------------8--7-----------------4--------------------------|---- 
B---|-----8--7--0--------8--7--5--4--0-----5--4--3--0--0--0--------|---- 
       
 
        Guitar 2                                                              
E----------------------------------------------------------------------- 
B----------------------------------------------------------------------- 
E---------6------------------------------------------------------------- 
B---------5------------------------------------------------------------- 
F#--------4------------------------------------------------------------- 
B---------0------------------------------------------------------------- 
     
 
 
Both Guitars                                               4x             
E---||----------------------------------------------------||------------ 
B---||----------------------------------------------------||------------ 
E---||*--------------------------------6-----------------*||------------ 
B---||*--------------------------------6-----------------*||------------ 
F#--||------------8--7-----------------4------------------||------------ 
B---||---8--7--0--------8--7--5--4--0-----5--4--0--0--0---||------------ 
                                                                                  
 
 
                                                        4x             
E-||----------------------------------------------------||------------ 
B-||----------------------------------------------------||------------ 
E-||*--------------------------------6-----------------*||------------ 
B-||*--------------------------------6-----------------*||------------ 
F#||------------8--7-----------------4------------------||------------ 
B-||---8--7--0--------8--7--5--4--0-----5--4--0--0--0---||------------ 
 P.M:  *  *  *  *  *  *  *  *  *  *  *  *  *  *  *  * 
 
 
 
 
 
    post 'Great Mosh Fill' / Fill 2                           8x         
E-||--------------------------------------------------||-------- 
B-||--------------------------------------------------||-------- 
E-||*--------------10-----9--------------------------*||-------- 
B-||*--------------8------7-----6-----5--------------*||-------- 
F#||---8-----7------------------4-----3-----4-----3---||-------- 
B-||---8-----7------------------------------4-----3---||-------- 
 
 
REPEAT VERSE 
 
REPEAT CHORUS 
 
 
 
What All The Stuff Means (!): 
 
l.h.m = muting the note stated wth your left hand / finger on left hand 
P.M = palm mute, when playing the note stated 
Comments