Slipknot - Surfacing Chords & Tabs

 

Surfacing Chords & Tabs

Slipknot Chords & Tabs

Version: 4 Type: Tab 0 ratings
1 star 2 stars 3 stars 4 stars 5 stars
comments

Surfacing Tab

- SURFACING -
submitted by: Barret Strickland

Intro
~~~~~
|--------------|-------------|
|--------------|-------------|
|--------------|-------------|
|--------------|-------------|
|--------------|-0--1-0--0-1-|
|--0--1-0--0-1-|-0--1-0--0-1-|

Verse
~~~~~
|---------------|---------------|
|---------------|---------------|
|---------------|---------------|
|---------------|---------------|
|------1-0--0-1-|-5---5----5-6^-|
|--0-0-1-0--0-1-|---0----0------|
PM - -   -  -
1/2                           -

Chorus
~~~~~~
|---------------|
|---------------|
|---------------|
|---------------|
|--0-0-1-0--0-1-|
|--0-0-1-0--0-1-|
PM - -   -  -
[ Tab from: http://www.guitartabs.cc/tabs/s/slipknot/surfacing_tab_ver_4.html ]
Bridge
~~~~~~
|----------------------------------|---------------------------------|
|----------------------------------|---------------------------------|
|----------------------------------|---------------------------------|
|----------------------------------|-------7-6-5-------4-3-2---------|
|--------7-6-5-------4-3-2---------|-8-7-6-7-6-5-6-5-4-4-3-2-3-2-1-0-|
|--8-7-6-------6-5-4-------3-2-1-0-|-8-7-6-------6-5-4-------3-2-1-0-|

|----------------------------------|
|----------------------------------|
|----------------------------------|
|--------7-6-5-------4-3-2---------|
|--8-7-6-7-6-5-6-5-4-4-3-2-3-2-1-0-|
|--8-7-6-------6-5-4-------3-2-1-0-|
PM - - - - - - - - - - - - - - - - 

Verse 2
~~~~~~~
|------------------|
|------------------|
|------------------|
|----------4-3-----|
|--3-2-3-2-2-1-----|
|--3-2-3-2-----3-2-|






Comments