Slipknot - Surfacing Chords & Tabs

 

Surfacing Chords & Tabs

Slipknot Chords & Tabs

Version: 3 Type: Tab 0 ratings
1 star 2 stars 3 stars 4 stars 5 stars
comments

Surfacing Tab

Slipknot
Surfacing
Tabbed by James Low whatisaturnip@yahoo.co.uk

This tab is very accurate, as i took it directly from the actual
music book

C#-----20bend-----------------------------------------
G#----------------------------------------------------
E-----------------------------------------------------
B--------------17-20-17-------------------------------
F#----------------------------------------------------
B-----------------------------------------------------

C#----------------------------------------------------
G#----------------------------------------------------
E-----------------------------------------------------
B-----------------------------------------------------
F#---0--0--1--0----0--1-------------------------------
B----0--0--1--0----0--1-------------------------------

C#----------------------------------------------------
G#----------------------------------------------------
E-----------------------------------------------------
B-----------------------------------------------------
F#---------1--0-------1-------------------------------
B----0--0--1--0----0--1-------------------------------

C#----20bend--------------20bend----------------------
G#----------------------------------------------------
E-----------------------------------------------------
B-----------------------------------------------------
F#----------------------------------------------------
B-----------------------------------------------------
[ Tab from: http://www.guitartabs.cc/tabs/s/slipknot/surfacing_tab_ver_3.html ]
C#----------------------------------------------------
G#----------------------------------------------------
E----7--7--8--7-----7--8bend--------------------------
B----x--x--x--x-----x--x------------------------------
F#---5--5--6--5-----5--6------------------------------
B-----------------------------------------------------

C#----------------------------------------------------
G#----------------------------------------------------
E-----------------------------------------------------
B-----------------------------------------------------
F#------------7--6-----------------4--3---------------
B----8--7--6--------8--7--6--4--3--------4--3--2--1---

C#----------------------------------------------------
G#--12--12--12--12--12--12----------------------------
E---x---x---x---x---x---x-----------------------------
B---9---9---9---9---9---9-----------------------------
F#----------------------------------------------------
B-----------------------------------------------------

C#----------------------------------------------------
G#----------------------------------------------------
E-----------------------------------------------------
B-------------9--8-----------------6--5---------------
F#---8--7--6--7--6--8--7--6--4--3--4--3--4--3--2--1---
B----8--7--6--------8--7--6--4--3--------4--3--2--1---

C#----------------------------------------------------
G#----------------------------------------------------
E-----------------------------------------------------
B--------------/10----9-------------------------------
F#---3----2----/8-----7----9----8----3----2-----------
B----3----2----------------9----8----3----2-----------
Comments