Slipknot - Surfacing Chords & Tabs

 

Surfacing Chords & Tabs

Slipknot Chords & Tabs

Version: 10 Type: Tab 0 ratings
1 star 2 stars 3 stars 4 stars 5 stars
comments

Surfacing Tab

   
Surfacing-Slipknot
Tabbed by:Stew
Email:Terrible001@hotmail.com
Its pretty close, i seen it live and its the same on disasterpieces.

Tuning:Drop B
B F# B E G# C#

Mick-With wah,trill.hammer with finger and the 17s up.not sure how many 243s
bring the wah down as you bend.
C|-----------------------------------------------------------------------|
G|--------h2h4h3h2h4h3-------------h2h4h3h2h4h3---------h2h4h3h2h4h3-----|
E|-h17b---------------h17b---------------------h17b------------------h17b|2x
B|-----------------------------------------------------------------------|
F|-----------------------------------------------------------------------|
B|-----------------------------------------------------------------------|
[ Tab from: http://www.guitartabs.cc/tabs/s/slipknot/surfacing_tab_ver_10.html ]
James
C|-----------------------------------------------------------------------|
G|-----------------------------------------------------------------------|
E|-----------------------------------------------------------------------|
B|-----------------------------------------------------------------------|6x
F|-0-0-1-0---0-1---0-0-1-0---0-1---0-0-1-0---0-1---0-0-1-0---0-1---------|
B|-0-0-1-0---0-1---0-0-1-0---0-1---0-0-1-0---0-1---0-0-1-0---0-1---------|

Mick-during james' part
C|-------------------------------------------------------------------------|
G|-------------------------------------------------------------------------|
E|-h17b-----h17b-------h17b-----h17b---------h17b--------h17b--------------|
B|-------------------------------------------------------------------------|
F|-------------------------------------------------------------------------|
B|-------------------------------------------------------------------------|

Both
C|-----------------------------------------------------------------------|
G|-----------------------------------------------------------------------|
E|-----------------------------------------------------------------------|
B|-----------------------------------------------------------------------|2x
F|-0-0-1-0---0-1---0-0-1-0---0-1---0-0-1-0---0-1---0-0-1-0---0-1---------|
B|-0-0-1-0---0-1---0-0-1-0---0-1---0-0-1-0---0-1---0-0-1-0---0-1---------|


| /  slide up
| \  slide down
| h  hammer-on
| p  pull-off
| ~  vibrato
| +  harmonic
| x  Mute note
===============================================================================
Comments