Slipknot - Spit It Out Chords & Tabs

 

Spit It Out Chords & Tabs

Slipknot Chords & Tabs

Version: 4 Type: Tab 0 ratings
1 star 2 stars 3 stars 4 stars 5 stars
comments

Spit It Out Tab

   
Spit It Out-Slipknot
Slipknot

Drop B
B F# B E G# C#

w/ flanger
e---------------------------------------------------
b---------------------------------------------------
g---------------------------------------------------
d---------------------------------------------------
a-1--0-----1--------1--0--1--0-----1--0-----1--0----
d-1--0-/5--1--0-/5--1--0--1--0-/5--1--0-/5--1--0----

Verse:  since you never gave a damn......

e---------------------------------------------------
b---------------------------------------------------
g---------------------------------------------------
d---------------------------------------------------
a-1--0-----1--0-----1--0-1--0-----1--0-----1--0-----
d-1--0-/5--1--0-/5--1--0-1--0-/5--1--0-/5--1--0-----

e---------------------------------------------------
b---------------------------------------------------
g---------------------------------------------------
d---------------------------------------------------
a-1--0-----1--0-----1--0--1--0------1----------------
d-1--0-/5--1--0-/5--1--0--1--0--/5--1----------------

Fig 1. x6
e---------------------------------------------------
b---------------------------------------------------
g------5--------5--------------5--------5-----------
d------3--------3--------------3--------3-----------
a-1--0----1--0-----1--0--1--0-----1--0-----1--0-----
d-1--0----1--0-----1--0--1--0-----1--0-----1--0-----

Chorus: .....Spit, it out...
[ Tab from: http://www.guitartabs.cc/tabs/s/slipknot/spit_it_out_tab_ver_4.html ]
e---------------------------------------------------------
b---------------------------------------------------------
g---------------------------------------------------------
d---------------------------------------------------------
a-3-3-3---3-2---2-3--3-1---1-1-3-3-3---3-2---2-3--3--1----
d-3-3-3---3-2---2-3--3-1---1-1-3-3-3---3-2---2-3--3--1----

Verse
Riff A

e---------------------------------------------------------
b---------------------------------------------------------
g---------------------------------------------------------
d-----6------7br---------6------7br-----------------------
a-5-----5------------5-----5------------------------------
d---------------------------------------------------------

Bridge:

e---------------------------------------------------------
b---------------------------------------------------------
g-7-7-7--7-8--8-7--7-8---8-7-7-7-7--7-8--8-7--7-8---8-7---
d-x-x-x--x-x--x-x--x-x---x-x-x-x-x--x-x--x-x--x-x---x-x---
a-5-5-5--5-6--6-5--5-6---6-5-5-5-5--5-6--6-5--5-6---6-5---
d-0-0-0----------------------0-0-0------------------------

e---------------------------------------------------------
b101010-1011-1110-1011--1110101010-1011-1110-1011--1011---
g-x-x-x--x-x--x-x--x-x---x-x-x-x-x--x-x--x-x--x-x---x-x---
d-7-7-7--7-8--8-7--7-8---8-7-7-7-7--7-8--8-7--7-8---7-8---
a-0-0-0--0-1--1-0--0-1---1-0-0-0-0--0-1--1-0--0-1---1-0---
d-0-0-0--0-1--1-0--0-1---1-0-0-0-0--0-1--1-0--0-1---1-0---

e---------------------------------------------------------
b---------------------------------------------------------
g-19-19-19--19-20--19-20--20-19-21212121212121212121212---
d-x--x--x---x--x---x--x---x--x--x-x-x-x-x-x-x-x-x-x-x-x---
a-17-17-17--17-18--17-18--18-17-191919191919191919191919--
d---------------------------------------------------------

thatís all

trevor jones
timmy91199@yahoo.ca
Comments