Slipknot - Spit It Out Chords & Tabs

 

Spit It Out Chords & Tabs

Slipknot Chords & Tabs

Version: 2 Type: Tab 1 rating
1 star 2 stars 3 stars 4 stars 5 stars
comments

Spit It Out Tab

   
Slipknot- Spit It Out

Tabbed by James Low whatisaturnip@yahoo.co.uk

tuning- B F# B E G# C#

This aint the exact rhythm, but im sure you'll
get the idea!

Intro

---------------------------------------
---------------------------------------
---------------------------------------
--1--0-----1--0-----1--0---------------
--1--0-----1--0-----1--0---------------
--1--0--5--1--0--5--1--0---------------

Verse

---------------------------------------
---------------------------------------
--------5--------5---------------------
--1--0--3--1--0--3--1--0---------------
--1--0-----1--0-----1--0---------------
--1--0-----1--0-----1--0---------------

Chorus
[ Tab from: http://www.guitartabs.cc/tabs/s/slipknot/spit_it_out_tab_ver_2.html ]
---------------------------------------
---------------------------------------
---------------------------------------
--3--2--3--1-----------6---7bend-------
--3--2--3--1---------5---5-------------
--3--2--3--1---------------------------

Bridge

---------------------------------------
---------------------------------------
--7--8-----14--15-----19--20-----21----
--x--x-----x---x------x---x------x-----
--5--6-----12--13-----17--18-----19----
---------------------------------------

---------------------------------------
---------------------------------------
---------------------------------------
--0--1--0--1--0--1---------------------
--0--1--0--1--0--1---------------------
--0--1--0--1--0--1---------------------

This should be pretty exact, as i got it from
the actual Slipknot Guitar Tab book
Comments