Slipknot - Spit It Out Chords & Tabs

 

Spit It Out Chords & Tabs

Slipknot Chords & Tabs

Version: 1 Type: Tab 0 ratings
1 star 2 stars 3 stars 4 stars 5 stars
comments

Spit It Out Tab

   
- SPIT IT OUT -
submitted by: Barret Strickland

Tuning from Low to High: B, F#, B, E, G#, C#
PM - Palm Mute
SV - Strong Vibrato

Intro/Verse
~~~~~~~~~~~
|------------------|
|------------------|
|------------------|
|--1-0---1-0---1-0-|
|--1-0---1-0---1-0-|
|--1-0---1-0---1-0-|
PM - -   - -   - -

Chorus
~~~~~~
|------------------------------|
|------------------------------|
|------------------------------|
|--4/3--2--3--1-1-3--2--3--1-1-|
|--4/3--2--3--1-1-3--2--3--1-1-|
|--4/3--2--3--1-1-3--2--3--1-1-|

Verse 2
~~~~~~~
|-------------------|
|-------------------|
|-------------------|
|-------------------|
|--------11-----12~-|
|--11h12----12------|
SV              --
[ Tab from: http://www.guitartabs.cc/tabs/s/slipknot/spit_it_out_tab.html ]
Bridge
~~~~~~
|-----------------|----------------------|-10-10-11--10--11--10-|
|-----------------|-10-10-11--10--11--10-|----------------------|
|--7-7-8--7--8--7-|----------------------|-7--7--8---7---8---7--| GUITAR 1
|-----------------|-7--7--8---7---8---7--|----------------------|
|--5-5-6--5--6--5-|----------------------|----------------------|
|-----------------|----------------------|----------------------|
|                 |                      |                      |
|-----------------|----------------------|----------------------|
|-----------------|----------------------|----------------------|
|-----------------|----------------------|----------------------|
|--0-0------------|-0--0--1---0---1---0--|-0--0--1---0---1---0--| GUITAR 2
|--0-0------------|-0--0--1---0---1---0--|-0--0--1---0---1---0--|
|--0-0------------|-0--0--1---0---1---0--|-0--0--1---0---1---0--|

|-----------------------|
|-----------------------|
|-----------------------|
|--0--0--1---0---1---0--| Then both guitars
|--0--0--1---0---1---0--|
|--0--0--1---0---1---0--|

Comments