Slipknot - Slipknot Album Chords & Tabs

 

Slipknot Album Chords & Tabs

Slipknot Chords & Tabs

Version: 1 Type: Tab 2 ratings
1 star 2 stars 3 stars 4 stars 5 stars
comments

Slipknot Album Tab

   
Slipknot- Slipknot (album)
Compiled by James Low whatisaturnip@yahoo.co.uk
Tabbed by various people

1. 742617000027

2. (sic)

Transcribed By: Travis Adams (slipknot_8_surfacing@yahoo.com)

Tuning from low to high: B F B Eb G C
PM - Palm Mute
1/2 - Bend 1/2 step

Intro
~~~~~
|--------------------------------|-------------------------------|
|--------------------------------|-------------------------------|
|--------------------------------|-------------------------------|
|--------------------------------|-------------------------------|
|--0-0---0-0-0---0-0-0---0-0-0-1-|-0-0---000-0---000-0---000-0-1-|
|--0-0---0-0-0---0-0-0---0-0-0-1-|-0-0---000-0---000-0---000-0-1-|

|-------------------|----------------|
|-------------------|----------------|
|-------------------|----------------|
|-------------------|----------------|
|--3p2-0-0-1-00-0-0-|-0-0-1--0-0-3h2-|
|--3p2-0-0-1-00-0-0-|-0-0-1--0-0-3h2-|
PM     - -            - -    - -


Verse 1
~~~~~~~
|------------------------------|-----------------------------|
|------------------------------|-----------------------------|
|------------------------------|-----------------------------|
|------------------------------|-----------------------------|
|------------------------------|-1-----1-0--1-0--1-0-1-4-3-0-|
|--1-0-0-1-0--1-0--1-0-1-4-3-0-|-1-0-0-1-0--1-0--1-0-1-4-3-0-|

|----------------------------------|
|----------------------------------|
|--5-5-5-5---------4-4-4-4---------| GUITAR 1
|----------7-7-7-7---------6-6-6-6-|
|----------------------------------|
|----------------------------------|
|    |
|----------------------------------|
|----------------------------------|
|----------------------------------| GUITAR 2
|----------------------------------|
|----------------------------------|
|--5-5-5-5-2-2-2-2-4-4-4-4-1-1-1-1-|

|-----------------------------|
|-----------------------------|
|-----------------------------|
|-----------------------------|
|-1-0---1-0--1-0--1-0-1-4-3-0-|
|-1-0- -1-0--1-0--1-0-1-4-3-0-|

Bridge
~~~~~~
|------------------------|---------------------|
|------------------------|---------------------|
|------------------------|---------------------|
|------------1---------1-|---------------------|
|--5~--0--------1~-------|-5^-5^---------------|
|--------0-0-------1-1---|-------0-6--0-6--0-6-|
PM       - -       - -                         
1/2                         -  -

Verse 2
~~~~~~~
|------------------|
|------------------|
|------------------|
|------------------|
|--0--0--0--0--0-6-|
|--0--0--0--0--0-6-|
PM -  -  -  -  -

|----------------------|---------------------------------|
|----------------------|---------------------------------|
|----------------------|---------------------------------|
|-----------3----------|---------------------------------|
|--0--3--2--1----0-3-2-|-5-2-0-2-0---5-2-0-2-0---5-2-0-2-|
|--0--3--2-------0-3-2-|-5-2-0-2-0---5-2-0-2-0---5-2-0-2-|
PM               -         

3. Eyeless

Transcribed By: Poffinator86@aol.com (BRYAN POFF)

Tuning: 3 steps down then drop d (B-F#-B-E-G#-C#)

Key:
pm = palm mute
spm = slight palm mute
p = pull off
~ = vibrato
/ = slide
* = play only these during the part (whatever)...

Note: There are no 10's or 11's unless stated!!!

Intro Riff (guitar 1 plays this while guitar 2 plays the main riff!)

C#|-12-12-12-12-12-12-12-12-12-12-12-12-|
G#|-17-17-17-16-17-17-16-16-16-16-16-16-| (hit the 17s with your pinkie!)


Main Riff (chorus and the *verses) - listen to the CD for exact rhythm!!!

B |-00-10-60-66-00-88-00-88-|
F#|-00-10-60-66-00-88-00-88-|
B |-00-10-60-66-00-88-00-88-|
    ***********
pm  --  -         --

"Its all in your head!!!"

E |-999-9998-999-|
B |-888-8887-888-|
F#|-777-7776-777-|

Then comes the cool slow part...

F#|-000-----------0-1-0--0-1-0-|
B |-000-6^//p//1--0-1-0--0-1-0-|
(bend the 6 and without releasing the bend, pulloff to 1...)

"I feel safe..." (play intro over it)

B |-0--4--1-2-|
F#|-0--4--1-2-|
B |-0--4--1-2-|

Finish off with the slow part riff.. except, play it slower...

4. Wait And Bleed

Transcribed By: Travis Adams (slipknot_8_surfacing@yahoo.com)

Tuning from low to high: B F B Eb G C
PM - Palm Mute

Intro/Chorus
~~~~~~~~~~~~
|-------------------------|
|-------------------------|
|-------------------------| guitar 1
|---------------------1---|
|------0----------1-----1-|
|--0-------0--1-----------|
|   |
|-------------------------|
|-------------------------|
|-------------------------| guitar 2 (only in chorus)
|--7----------8-----------|
|-------------------------|
|-------------------------|

Verse
~~~~~
|----------------|---------------|
|----------------|---------------|
|----------------|---------------|
|----------------|---------------|
|--0-0--0-0------|-0-0--0-0--4-1-|
|--0-0--0-0-7/12-|-0-0--0-0--4-1-|
PM                           - -

Bridge
~~~~~~
|---------------|-------------|
|---------------|-------------|
|---------------|-------------|
|------7--------|-----2-------|
|--5h6-------5~-|-0h1-0-------|
|--------0-0----|-0h1---0-0-0-|
PM       - -            - -

Outro
~~~~~
|---------------|
|---------------|
|---------------|
|---------------|
|-0-0--0-0--4-1-|
|-0-0--0-0--4-1-|

5. Surfacing

Transcribed By: Travis Adams (slipknot_8_surfacing@yahoo.com)

Intro
~~~~~
|--------------|-------------|
|--------------|-------------|
|--------------|-------------|
|--------------|-------------|
|--------------|-0--1-0--0-1-|
|--0--1-0--0-1-|-0--1-0--0-1-|

Verse
~~~~~
|---------------|---------------|
|---------------|---------------|
|---------------|---------------|
|---------------|---------------|
|------1-0--0-1-|-5---5----5-6^-|
|--0-0-1-0--0-1-|---0----0------|
PM - -   -  -
1/2                           -

Chorus
~~~~~~
|---------------|
|---------------|
|---------------|
|---------------|
|--0-0-1-0--0-1-|
|--0-0-1-0--0-1-|
PM - -   -  -

Bridge
~~~~~~
|----------------------------------|---------------------------------|
|----------------------------------|---------------------------------|
|----------------------------------|---------------------------------|
|----------------------------------|-------7-6-5-------4-3-2---------|
|--------7-6-5-------4-3-2---------|-8-7-6-7-6-5-6-5-4-4-3-2-3-2-1-0-|
|--8-7-6-------6-5-4-------3-2-1-0-|-8-7-6-------6-5-4-------3-2-1-0-|

|----------------------------------|
|----------------------------------|
|----------------------------------|
|--------7-6-5-------4-3-2---------|
|--8-7-6-7-6-5-6-5-4-4-3-2-3-2-1-0-|
|--8-7-6-------6-5-4-------3-2-1-0-|
PM - - - - - - - - - - - - - - - - 

Verse 2
~~~~~~~
|------------------|
|------------------|
|------------------|
|----------4-3-----|
|--3-2-3-2-2-1-----|
|--3-2-3-2-----3-2-|

6. Spit It Out

Transcribed By: Travis Adams (slipknot_8_surfacing@yahoo.com)

Tuning from Low to High: B, F#, B, E, G#, C#
PM - Palm Mute
SV - Strong Vibrato

Intro/Verse
~~~~~~~~~~~
|------------------|
|------------------|
|------------------|
|--1-0---1-0---1-0-|
|--1-0---1-0---1-0-|
|--1-0---1-0---1-0-|
PM - -   - -   - -

Chorus
~~~~~~
|------------------------------|
|------------------------------|
|------------------------------|
|--4/3--2--3--1-1-3--2--3--1-1-|
|--4/3--2--3--1-1-3--2--3--1-1-|
|--4/3--2--3--1-1-3--2--3--1-1-|

Verse 2
~~~~~~~
|-------------------|
|-------------------|
|-------------------|
|-------------------|
|--------11-----12~-|
|--11h12----12------|
SV              --

Bridge
~~~~~~
|-----------------|----------------------|-10-10-11-- 
10--11--10-|
|-----------------|-10-10-11--10--11--10-|----------------------|
|--7-7-8--7--8--7-|----------------------|-7--7--8---7---8---7--|
GUITAR 1
|-----------------|-7--7--8---7---8---7--|----------------------|
|--5-5-6--5--6--5-|----------------------|----------------------|
|-----------------|----------------------|----------------------|
|                 |                      |            
         |
|-----------------|----------------------|----------------------|
|-----------------|----------------------|----------------------|
|-----------------|----------------------|----------------------|
|--0-0------------|-0--0--1---0---1---0--|-0--0--1---0---1---0--|
GUITAR 2
|--0-0------------|-0--0--1---0---1---0--|-0--0--1---0---1---0--|
|--0-0------------|-0--0--1---0---1---0--|-0--0--1---0---1---0--|

|-----------------------|
|-----------------------|
|-----------------------|
|--0--0--1---0---1---0--| Then both guitars
|--0--0--1---0---1---0--|
|--0--0--1---0---1---0--|

7. Tattered And Torn

Transcribed By: Poffinator86@aol.com (BRYAN POFF)

tuning = 3 steps down then drop d (B-F#-B-E-G#-C#)

Key:
t = tap on
p = pull off
pm = palm mute
/ = slide


The main riff...

C#|-18p17t18p17-/-15p14t15p14-/-18p17t18-/-12t13p12t13p12-|
G#|-------------------------------------------------------|
E |-------------------------------------------------------|

Played during the vesres (mite be a little off...)

C#|-18/14-14/12-|

The heavy riff at the end...

B |-1-0-01-0-|
F#|-1-0-01-0-|
B |-1-0-01-0-|
pm    - -

8. Frail Limb Nursery

9. Purity

Transcribed By: Poffinator86@aol.com (BRYAN POFF)

tuning = 3 steps down then drop d (B-F#-B-E-G#-C#)

Key:
pm = palm mute
spm = slight palm mute
p = pull off
h = hammer on
~ = vibrato
x = dont play this string
^ = bend up
/ = slide

Note: there are no 10's and 11's unless stated!!!

Intro

B |----------------------------------------|
F#|----------------------------------------|
B |-0000100000100100000001000001001000-5^~-|
spm ----------------------------------

Second Riff in the song w/scraches + flanger

B |-0000100000100100000001000001001000-----|
F#|-0000100000100100000001000001001000-----|
B |-0000100000100100000001000001001000-5^~-|

The first verse starts off with feedback.
Play this note if you can't produce similar feedback

C#|-19-|

This riff occurs twice during the verse (the volume is down)
"...put me in a hole for shelter"

F#|-00000-----------|
B |-00000---5~///p0-| - kinda scratch the stings when you play those 0's...
pm  -----

This riff is heard throughout the song (inc. after the chorus)

B |-0h1p00101p000100-|
F#|-0h1p00101p000100-|
B |-0h1p00101p000100-|

Chorus (may be a bit off...) - "You all stare..."

B |-4--0--1-3~-|
F#|-4--0--1-3~-| - let the chords ring
B |-4--0--1-3~-|

This riff comes in after the first chorus

E |-7^7^7^7^7^7--|
B |-xxxxxxxxxxx--|
F#|-5^5^5-5^5^5--|
B |------0-----0-|

"Knowledge of my pain..."

B |------------|-1-0-00-1-0-|
F#|------------|-1-0-00-1-0-|
B |-1-0-00-1-0-|-1-0-00-1-0-|
spm     --           --

Thats All! The remaining riffs are slight variations of the ones above.
You can figure em out.

10. Liberate

Transcribed By: Poffinator86@aol.com (BRYAN POFF)

tuning = 3 steps down then drop d... (B-F#-B-E-G#-C#)

Key:
pm = palm mute
spm = slight palm mute
/ = slide
~ = vibrato
^ = bend up
h = hammer on

Note: there are no 10's or 11's unless stated!!! (ie they are 0's and 1's)

Intro Riff

B |---------------------|
F#|---------------------| - the first note is a 10!
B |-10^-0-000-0000-0000-|
[ Tab from: http://www.guitartabs.cc/tabs/s/slipknot/slipknot_album_tab.html ]
"Liberate.. my madness"

B |-10-0-000-0000-0000-|
F#|-10-0-000-0000-0000-|
B |-10-0-000-0000-0000-|
spm    - --- ---- ----

Verse Riff

B |-1-0--0-1-0--0-1-3h5^~-|
F#|-1-0--0-1-0--0-1-3h5^~-|
B |-1-0--0-1-0--0-1-3h5^~-|
pm              - - -

Chorus Riff ("Back off of the shit...")

B |-1--0--0--0-1-0--0-1-0-1-3h5^~-|
F#|-1--0--0--0-1-0--0-1-0-1-3h5^~-|
B |-1--0--0--0-1-0--0-1-0-1-3h5^~-|
pm                      - - -

The wierd interlude ("Liberate .. my madnes")

F#|-665555-| - just hit those notes a bunch of times....

"Slave.. youre such a slave"

B |-1--0-1-|
F#|-1--0-1-| - very weird rhythm.. listen to cd carefully
B |-1--0-1-|
pm

Then when the vocals speed up...

F#|-5^5^5^5^5-| - start hitting those, then go back to the previous
riff....

"FRAUD!!!"

E |-88888888^88^8^88/7777-|
B |-xxxxxxxxxxxxxxxxxx----| - hit those fives towards the end...
F#|-66666666^66^6^66/5555-|
B |-----------------------|

"Liberate My Madness!!!" at the end

B |-2-111-0-001-|
F#|-2-111-0-001-|
B |-2-111-0-001-|
pm    --    --

The last riff

B |-2-111-0-001-|
F#|-2-111-0-001-|
B |-2-111-0-001-|

11. Prosthetics

Transcribed By: uriah (purity5633@aol.com)

Tuning: B F# B E G# C#

  Intro
C#|-17---17----17-----17---17----17----17-----17----18-----18-----18-----18------18-------18-----18-----18----
G#|----15---15-----15----15---15----15-----15----15----14-----14------14----14------14-------14-----14-----14-
 E|-----------------------------------------------------------------------------------------------------------
 B|-----------------------------------------------------------------------------------------------------------
F#|-----------------------------------------------------------------------------------------------------------
 B|-----------------------------------------------------------------------------------------------------------

Other Part: YOU WILL BE MINE!
C#|----------------
G#|----------------
 E|----------------
 B|-0--0-0-0-1-0-0-
F#|-0--0-0-0-1-0-0-
 B|-0--0-0-0-1-0-0-

	
DAMMIT MAN I KNEW IT WAS A MISTAKE:
C#|--------------------
G#|--------------------
 E|--------------------
 B|--------------------
F#|-8-7-0-0-1-1-3-3h4-3
 B|-8-7-0-0-1-1-3-3h4-3

BRIDGE:
C#|----------------
G#|----------------
 E|----------------
 B|----------------
F#|----------------
 B|-4-3-0-10-1-2-00

12. No Life

Transcribed By: Poffinator86@aol.com (BRYAN POFF)

tuning = 3 steps down then drop d (B-F#-B-E-G#-C#)

Key:
~ = vibrato
pm = palm mute
^ = bend up
 = harmonic on that fret
txt = tremelo pick that note
p = pull off
/ = slide

Note: there are no 10's or 11's unless stated!!!

Intro Riff
B |-----------------------|

F#|-----------------------|
B |-6~p0--6~p0--6~p0-6~p0-|


Verse riff (first part is guitar 1, second guitar 2 with real dirty dist.
and wah)
B |------------|-----------------|
F#|------------|-5~-6^5-6^5-5^6~-|
B |-0-10-10-01-|-----------------|

Chorus Riff
B |-1/3-0-1/2-0--tt-|
F#|-1/3-0-1/2-0--------|
B |-1/3-0-1/2-0--------|

Interlude riff ("I can remember...")
B |-------------------------0-|---------------------------|
F#|-------------------------0-|-01010101010101010101010-0-|
B |-01010101010101010101010-0-|-01010101010101010101010-0-|
pm  -----------------------     ------- -  -   -------

The riff towards the end of the song (not too sure here... but close)
B |--------------|-01-001-01-02-|
F#|--------------|-01-001-01-02-|
B |-01-001-01-02-|-01-001-01-02-|
pm  -- --- -- --   -  --  -  -

13. Diluted

Transcribed By: uriah (purity5633@aol.com)

Tuning: B F# B E G# C#

 Intro/Verse: It itches it seethes
C#|----------------|--
G#|----------------|--
 E|----------------|--
 B|----------------|--
F#|-0-1-0-1-0-1----|--
 B|-0-1-0-1-0-1-3b~|8~

Pre-Verse/Outro:
C#|------------------------
G#|------------------------
 E|------------------------
 B|------------------------
G#|PM______________________
 B|1-1-1-1-1-1-1-1-0-0-0-0-

 PRE-CHORUS: This isright before the chorus
C#|---------------
G#|---------------
 E|---------------
 B|---------------
F#|-1-1-1-1-2-2-2-
 B|---------------

Chorus/Bridge:
C#|-------------------
G#|-------------------
 E|-------------------
 B|-2-2-2-1-2-2-2-1-2-
F#|-2-2-2-1-2-2-2-1-2-
 B|-2-2-2-1-2-2-2-1-2-

14. Only One

Transcribed By: uriah (purity5633@aol.com)

Tuning: B F# B E G# C#
Just to let you know I got this tab From 3d Blasphemy. but I fixed some shit on it.
  Intro:
C#|----------------------
G#|----------------------
 E|----------------------
 B|---3-2------3---------
F#|-0-1-0--3-1-1-2-1-0-1-
 B|-0------3-1---2-1---1-


C#|-------
G#|-------
 E|-------
 B|3-----0
G#|1-2-1-0
 B|--2-1--

Verse:
C#|------------------------|------------------------
G#|------------------------|------------------------
 E|------------------------|------------------------
 B|------------------------|------------------------
G#|------------------------|----1-0-------1-----0---
 B|-0-7-6-1-0-5-4-3-0-1-0--|-0-------3-0----2-1---1-

C#|----------
G#|----------
 E|----------
 B|-0-0-0-5-6
G#|-0-0-0-5-6
 B|-0-0-0-5-6

Then:
C#|-----------------------------------------------------
G#|-----------------------------------------------------
 E|-----------------------------------------------------
 B|-----------------------------------------------------
G#|--------5p3--------5p3--------5p3-0-2-2-2-2-3-3---2-0
 B|-0-0--0-----0-0--0-----0-0--0-----0-2-2-2-2-3-3---2-0

Only One:
C#|---------------
G#|---------------
 E|---------------
 B|-2-1-00-4-3-00-
F#|-2-1-00-4-3-00-
 B|-2-1-00-4-3-00-

15. Scissors

Transcribed By: Poffinator86@aol.com (BRYAN POFF)

tuning = 3 steps down then drop d... (B-F#-B-E-G#-C#)

Key:
x - dont play that string
/ - slide
pm - palm mute

Note: there are no 10's and 11's unless stated!!!

Intro

E |-77777-|
B |-xxxxx-| - tremelo pick this with a weak flanger effect.
F#|-55555-|

Then comes in a second guitar

E |-7777777777777777-|
B |-xxxxxxxxxxxxxxxx-| - here, increase the flanger effect when the 6's are
 played
F#|-55555555/6666666-|

Before the heavy part ("Broke away my tear spout...")

B |-7-7-7-7-|
F#|---------|

The heavy part ("As i lie there whith my tongue spread wide open...")

B |-111-0-|
F#|-111-0-|
B |-111-0-|

The Chorus Riff ("Its hard to stay between the lines of skin...")

B |-021-021-00-5-05-01-|
F#|-021-021-00-5-05-01-|
B |-021-021-00-5-05-01-|
pm  --- --- --   -  -

This riff comes in before "binding my time..."

B |-0000-01-|
F#|-0000-01-| - followed by percussion sounds
B |-0000-01-|
pm  ---- --

"Binding my time until the time is right"

B |-00-00-11-11-11-|
F#|-00-00-11-11-11-|
B |-00-00-11-11-11-|

The riff when he starts screaming after "Binding my time..."

B |-1--0-|
F#|-1--0-| - let the chords ring
B |-1--0-|

Then there is that noisefest part with feedback. Most notes resemble the
intro
so play around with that. Im sure its a random thing when the band plays it
 live
(if they do...). It kinda reminds me of Kurt Cobain and his feedback-led
solos.

Towards the end ("I want my time.. Id rather die..."

B |-7-|
F#|-7-| - this chord is played with flanger
B |-7-|

"Need Time!" (when Corey goes all psyco!)

B |-00-00-|
F#|-00-00-| - Just that chord
B |-00-00-|

Thats It!

16. Me Inside

Transcribed By: Gavin Oceanfree  ()

Tuning : B-F#-B-E-G#-C#

Key:
h    - Hammer (eg. 1h2 is 1 hammer in the 2nd fret)
p    - Pluck (eg. 1h2p1 pluck 1 after hammering 2)
>    - Slide
x    - Mute String (if seen alone strum 0 muted, if after a not eg. 0x 
                    then put finger over string to mute)


Riff1

B |-x-x-1r0-------------------
F#|-x-x-1r0-------------------
B |-x-x-1r0-------------------

Riff2

B |-x-1r0-1r0-x--x------------------
F#|-x-1r0-1r0-x--x------------------
B |-x-1r0-1r0-x--x------------------

Riff3

B |-0-1r0-1r0-0x--0x--
F#|-0-1r0-1r0-0x--0x--
B |-0-1r0-1r0-0x--0x--

Riff4

B |-x-2r1h2-0x-
F#|-x-2r1h2-0x-
B |-x-2r1h2-0x-

Riff5

C |-7r6r5--5h6h7--9r8r7--
G#|----------------------
E |----------------------

Riff6

B |---------------666>777-
B |-1-r-0--1-r-0--xxx>xxx-
F#|-1-r-0--1-r-0--333>555-
B |-1-r-0--1-r-0----------

Riff7

B |-0--6-5-3--5-0x--0x--1--3--1>7-
F#|-0--6-5-3--5-0x--0x--1--3--1>7-
B |-0--6-5-3--5-0x--0x--1--3--1>7-






ORDER

Riff1  x  12
Riff2  x   7
Riff3  x   7

-               (something similar to riff 5)

Riff4  x  16{ Played together.
Riff5  x   8{ 
Riff6  x   4 "Tearing me! inside"

-               (something similar to riff 5)

Riff4  x  16{ Played together.
Riff5  x   8{ 
Riff6  x   4 "Tearing me! inside"
Riff7  x   4 "I.. wasn't promised a thing..."
Riff2  x   2
riff1  x   4
riff2  x   2
Riff7  x   4 "I.. wasn't promised a thing..."
Riff1  x   8
Riff4  x   4

17. Get This

Transcribed By: Gavin Oceanfree  ()

Tuning : B-F#-B-E-G#-C#

Key:
h    - Hammer (eg. 1h2 is 1 hammer in the 2nd fret)
>    - Slide
x    - Mute String (if seen alone strum 0 muted, if after a not eg. 0x 
                    then put finger over string to mute)


Riff1

B |-------|
F#|-------|
B |-0-1-3-|

Riff2

B |-0x-x-1h3-|
F#|-0x-x-1h3-|   This riff is played real fast almost like a trill!
B |-0x-x-1h3-|

Riff3

B |--6-6-6-|-5>2-1-|
F#|--6-6-6-|-5>2-1-|
B |--6-6-6-|-5>2-1-|

Riff4

B |-333>555>666>555>666>777>666-|
F#|-xxx>xxx>xxx>xxx>xxx>xxx>xxx-|
B |-111>333>444>333>444>555>444-|

Riff5

B |-0x--0x--0x-|
F#|-0x--0x--0x-|
B |-0x--0x--0x-|

Riff6

E |-----|-555>666>333-|
B |-1---|-xxx>xxx>xxx-|
F#|-1---|-333>444>333-|  Use Tremilo where indicated
B |-1---|-------------|
   Trem

Riff7

B |-0-1-3-|
F#|-0-1-3-|
B |-0-1-3-|



ORDER

Riff1  x  8
Riff2  x 32
Riff3  x  3
Riff4  x  1
Riff2  x  8
Riff5  x  1
Riff2  x  3
Riff5  x  1
Riff3  x  3
Riff5  x  1
Riff6  x  4
Riff2  x 12
Riff5  x  7   Riff1 enters 3rd time around.
Riff7  x 32
Riff3  x  6

18. Interloper

(Not Here)

19. Despise

(Not Here)

20. Eeyore

Transcribed By: mmathers2000@aol.com (mmathers2000@aol.com)

Tuning= Drop D Down 1/2 steps

riff 1a
C# |-11-11-11-11-11-11-----------|
G# |-11-11-11-11-11-11-----------|
E  |--9--9--9--9--9--9-----------|
B  |----------------------6------|
F# |----------------------6------|
B  |----------------------4------|
 
(2ND guitar comes in after 9th time)
riff 1b
B  |-0-0-0-0-0-0----1------------|
F# |-0-0-0-0-0-0----1------------|
B  |-0-0-0-0-0-0----1------------|

riff 2
E  |----------7-7--8-8-8-8--7-7--|
B  |-5-5-5-5--7-7--8-8-8-8--7-7--|
F# |-5-5-5-5--5-5--6-6-6-6--5-5--|
B  |-3-3-3-3---------------------|

riff 3
B |-4-4-4-4-4-4---1--0----------|


riff 4a
B |-0-0-0-0-0-0-0-0----5^-5^-5^----0-0-0-0-0-0-0-0---5-8-7-8--|
  PM---------------|             PM---------------|

riff 4b
B |-5-8-7-8-|

riff 5

B |-0-----5^-5^-5^---0------5-8-7-5-|
Comments