Slipknot - Sic Chords & Tabs

 

Sic Chords & Tabs

Slipknot Chords & Tabs

Version: 9 Type: Tab 0 ratings
1 star 2 stars 3 stars 4 stars 5 stars
comments

Sic Tab

   
(Sic)-Slipknot
Slipknot

Drop B
B F# B E G# B

x2
e-----------------------------------------------------------------
b-----------------------------------------------------------------
g-----------------------------------------------------------------
d-----------------------------------------------------------------
a---0-------0-------0---------1-----0-------0-------0---------1---
d-0-0---0-0-0---0-0-0---0-0-0-1---0-0---0-0-0---0-0-0---0-0-0-1---

...Break !

x4
e-----------------------------------------------------------------
b-----------------------------------------------------------------
g-----------------------------------------------------------------
d-----------------------------------------------------------------
a-0----------0--------0----------1--------------------------------
d-0-0---00-0-0---00-0-0---00-0-0-1--------------------------------

...pick up the pace !

e-----------------------------------------------------------------
b-----------------------------------------------------------------
g-----------------------------------------------------------------
d-----------------------------------------------------------------
a------------------------------3--1-------------------------------
d------------------------------3--1-------------------------------

x4
e-----------------------------------------------------------------
b-----------------------------------------------------------------
g-----------------------------------------------------------------
d-----------------------------------------------------------------
a-----------------3--1------------------3--1----------------------
d-0--0---00-0--0--3--1--0--0---00-0--0--3--1----------------------

Riff A

e-----------------------------------------------------------------
b-----------------------------------------------------------------
g-----------------------------------------------------------------
d-----------------------------------------------------------------
a---------------------------------------------------------4-3---6-
d-1-0-0-1-0---1-0---1-0-1-4-3-0-6-1-0-0-1-0---1-0---1-0-1-4-3-0-6-

Verse 1 ...enemy show me what you wannabe.....

e-----------------------------------------------------------------
b-----------------------------------------------------------------
g-----------------------------------------------------------------
d-----------------------------------------------------------------
a-1-0-0-1-0---1-0---1-0-1-4-3-0-6-1-0-0-1-0---1-0---1-0-1-4-3-0-6-
d-1-0-0-1-0---1-0---1-0-1-4-3-0-6-1-0-0-1-0---1-0---1-0-1-4-3-0-6-

Chorus:

gtr 1
e-----------------------------------------------------------------
b-----------------------------------------------------------------
g-----------------------------------------------------------------
d-----------------------------------------------------------------
a-----------------------------------------------------------------
d-5555-2222-4444-1111-5555-2222-4444-1111-5555-2222-4444-1111-----

gtr 2.
[ Tab from: http://www.guitartabs.cc/tabs/s/slipknot/sic_tab_ver_9.html ]
e-----------------------------------------------------------------
b-8888-5555-7777-4444-8888-5555-7777-4444-8888-5555-7777-4444-----
g-xxxx-xxxx-xxxx-xxxx-xxxx-xxxx-xxxx-xxxx-xxxx-xxxx-xxxx-xxxx-----
d-5555-2222-4444-1111-5555-2222-4444-1111-5555-2222-4444-1111-----
a-----------------------------------------------------------------
d-----------------------------------------------------------------

Verse 2

e-----------------------------------------------------------------
b-----------------------------------------------------------------
g-----------------------------------------------------------------
d-----------------------------------------------------------------
a-1-0---1-0---1-0---1-0-1-4-3-0-6-1-0---1-0---1-0---1-0-1-4-3-0-6-
d-1-0---1-0---1-0---1-0-1-4-3-0-6-1-0---1-0---1-0---1-0-1-4-3-0-6-

Interlude:

e-----------------------------------------------------------------
b-----------------------------------------------------------------
g-7--------8-----------8---7--------8-----------8-----------------
d-x--------x-----------x---x--------x-----------x-----------------
a-5--------6-----------6---5--------6-----------6-----------------
d----6-0-0-----7~~~~-0--------6-0-0-----7~~~~-0-------------------

Interlude:

gtr 1 and 2
e-----------------------------------------------------------------
b-----------------------------------------------------------------
g-8--8------------------------8--8--------------------------------
d-x--x--7--6----6------6-6----x--x--7--6----6------6-6------------
a-6--6--x--x----x------x-x----6--6--x--x----x------x-x------------
d-------7--6----6------6-6----------7--6----6------6-6------------

gtr 1 and 2
e-----------------------------------------------------------------
b-----------------------------------------------------------------
g-8--8-------------------------8--8--8-11----11/14---14-----------
d-x--x--7--6----6------6-6-----x--x--x--x-----x-x----x------------
a-6--6--x--x----x------x-x-----6--6--6--9-----9/12---12-----------
d-------7--6----6------6-6-----------7--4-----4/7----7------------

Bridge: ...iíve just begun.....

e-----------------------------------------------------------------
b-----------------------------------------------------------------
g-----------------------------------------------------------------
d-----------------------------------------------------------------
a-0--0--0--0---0---0-1--0--0--0--0---0---0-1----------------------
d-0--0--0--0---0---0-1--0--0--0--0---0---0-1----------------------

mine !.......

e-----------------------------------------------------------------
b-----------------------------------------------------------------
g-----------------------------------------------------------------
d--------------3-------------------------3------------------------
a-0---3---2----1-----0-3-2--0---3---2----1-----0-3-2--------------
d-0---3---2----------0-3-2--0---3---2----------0-3-2--------------

Outro: ...sick !.....

e-----------------------------------------------------------------
b-----------------------------------------------------------------
g-----------------------------------------------------------------
d-----------------------------------------------------------------
A-5-2-1-2-1-0-5-2-1-2-1-0-5-2-0-2-5-2-1-2-1-0-5-2-1-2-1-0-5-2-0-2-
d-5-2-1-2-1-0-5-2-1-2-1-0-5-2-0-2-5-2-1-2-1-0-5-2-1-2-1-0-5-2-0-2-

thatís all of it

trevor jones
timmy91199@yahoo.ca
Comments