Slipknot - Sic Chords & Tabs

 

Sic Chords & Tabs

Slipknot Chords & Tabs

Version: 6 Type: Tab 0 ratings
1 star 2 stars 3 stars 4 stars 5 stars
comments

Sic Tab

   
slipknot:SIC
ALBUM:S/T
tabbed by:KOMMON (faimilyval@aol.com

whole song has distortion unless noted
intro x2
----------------------------------------------------------------------
----------------------------------------------------------------------
----------------------------------------------------------------------
-3-3--3--3-3--3--3-3--3--3-3--3-2-------------------------------------
-3-3--3--3-3--3--3-3--3--3-3--3-2-------------------------------------
-3-3--3--3-3--3--3-3--3--3-3--3-2-------------------------------------

intro.bx2
----------------------------------------------------------------------
----------------------------------------------------------------------
-3-3--3--3-3--3--3-3--3--3-3--3---------------------------------------
-3-3--3--3-3--3--3-3--3--3-3--3-2-------------------------------------
-3-3--3--3-3--3--3-3--3--3-3--3-2-------------------------------------
--------------------------------2-------------------------------------

intro.c(heavy distortion)x4
----------------------------------------------------------------------
----------------------------------------------------------------------
----------------------------------------------------------------------
-3-3--3--3-3--3--3-3--3--3-3--3-2-------------------------------------
-3-3--3--3-3--3--3-3--3--3-3--3-2-------------------------------------
-3-3--3--3-3--3--3-3--3--3-3--3-2-------------------------------------

intro.d
----------------------------------------------------------------------
----------------------------------------------------------------------
----------------------------------------------------------------------
-3/1-2-3-2-3-2-4------------------------------------------------------
-3/1-2-3-2-3-2-4------------------------------------------------------
-3/1-2-3-2-3-2-4------------------------------------------------------
[ Tab from: http://www.guitartabs.cc/tabs/s/slipknot/sic_tab_ver_6.html ]
verse1 x2 not distoreted
----------------------------------------------------------------------
----------------------------------------------------------------------
----------------------------------------------------------------------
----------------------------------------------------------------------
----------------------------------------------------------------------
-3-4-3-2-1-2-3-4-5-4-3-2----------------------------------------------

verse1.b distorted x4
----------------------------------------------------------------------
----------------------------------------------------------------------
----------------------------------------------------------------------
-3-4-3-2-1-2-3-4-5-4-3-2----------------------------------------------
-3-4-3-2-1-2-3-4-5-4-3-2----------------------------------------------
-3-4-3-2-1-2-3-4-5-4-3-2----------------------------------------------

play verse 1 x2
play verse 1.b x2

slow guitar quicky x4
-1-0-3-2 ------------------------------------------------------------
----------------------------------------------------------------------
----------------------------------------------------------------------
----------------------------------------------------------------------
----------------------------------------------------------------------
----------------------------------------------------------------------

heavy breathing part x5
----------------------------------------------------------------------
----------------------------------------------------------------------
----------------------------------------------------------------------
-3-2-3-2-2/3----------------------------------------------------------
-3-2-3-2-2/3----------------------------------------------------------
-3-2-3-2-2/3----------------------------------------------------------
"ive just begun"


outro
----------------------------------------------------------------------
----------------------------------------------------------------------
----------------------------------------------------------------------
----------------------------------------------------------------------
-------/\-------------------------------------------------------------
-0-3-2-2--------------------------------------------------------------

intro x2
intro.b x2
intro.c x4
intro.dx6
verse1 x2
verse1b. x6
verse1 x2
verse1b.x2
intro.d x2
verse1 x2
verse1b. x6
verse1 x2
slow guitarx2
heavy breathing x5
vers1. x2
verse1.b x4
intro .d x6
outro x6

i know i must have f*** up and the list up there try to figure it out its
hardother then that the tab is good












Comments