Slipknot - Sic Chords & Tabs

 

Sic Chords & Tabs

Slipknot Chords & Tabs

Version: 5 Type: Tab 0 ratings
1 star 2 stars 3 stars 4 stars 5 stars
comments

Sic Tab

Sic - Slipknot

This is a great song. It's a great one to play in front of your mates, just to show off. 
The faster you can play it, the better it will sound.
These are the right tabs, so if it don't sound right, you're playin' it wrong.
Mick uses a BC Rich warlock, and down tunes his guitar to B.
These tabs are in drop D.

	Intro
  --------------------
  --------------------
  --------------------			x4
  --00-000-000-000-1--
  --00-000-000-000-1--
  --00-000-000-000-1--



	Pre-Verse
  --------------------
  --------------------
  --------------------			x4
  --3-2-00-1-0-0------
  --3-2-00-1-0-0------
  --3-2-00-1-0-0------



  
	Verse

    (first guitar and then second)        (both guitars)
  ----------------------------------  -----------------------------
  ----------------------------------  -----------------------------
  ----------------------------------  -----------------------------
  ----------------------------------  --1-00-1-0-1-0-1-0-1-2-0-2-3-
  ----------------------------------  --1-00-1-0-1-0-1-0-1-2-0-2-3-
  --1-00-1-0-1-0-1-0-1-2-0-2-3------  --1-00-1-0-1-0-1-0-1-2-0-2-3-


[ Tab from: http://www.guitartabs.cc/tabs/s/slipknot/sic_tab_ver_5.html ]
	Interlude
  ----------------------------------
  ----------------------------------
  ----------------------------------
  --5555-2222-4444-1111-------------
  --5555-2222-4444-1111-------------
  --5555-2222-4444-1111-------------


	(play the verse and interlude again)

	bridge
  ----------------------------------
  ----------------------------------
  ----------------------------------
  --12-10-0-13-10-0-8---------------
  --12-10-0-13-10-0-8---------------
  --12-10-0-13-10-0-8---------------

  ----------------------------------
  ----------------------------------
  ----------------------------------
  --0-0-0-0-01----------------------
  --0-0-0-0-01----------------------
  --0-0-0-0-01----------------------


  ----------------------------------
  ----------------------------------	(this is hard. use your little finger
  ----------------------------------	 to hit fret 4 and your first finger to
  --4-1-0-1-0-1-4-1-0-1-0-1-4-1-0-1-	 hit fret 1)
  --4-1-0-1-0-1-4-1-0-1-0-1-4-1-0-1-
  --4-1-0-1-0-1-4-1-0-1-0-1-4-1-0-1-

	(to wrap up, finish with a burst of feedback. slipknot don't do this
		but it's a little effect that makes your playing sound just that
			little bit better.)

























	



















Comments