Slipknot - Sic Chords & Tabs

 

Sic Chords & Tabs

Slipknot Chords & Tabs

Version: 3 Type: Tab 0 ratings
1 star 2 stars 3 stars 4 stars 5 stars
comments

Sic Tab

   
SLIPKNOT: (SIC) 
Tune down: CACDBG


G-----------------------------------------------------
B-----------------------------------------------------
D-----------------------------------------------------
C-000-1-000-11---------------------1-0-1-0-1-0-1-3-2-1
A-000-1-000-11---------------------1-0-1-0-1-0-1-3-2-1
C-000-1-000-11-1-0-1-0-1-0-1-3-2-0-1-0-1-0-1-0-1-3-2-1
[ Tab from: http://www.guitartabs.cc/tabs/s/slipknot/sic_tab_ver_3.html ]
G------------------------------6/12-----------------------
B--------------------------444^---------------------------
D------------------------------------6^-------------------
C-3-2-1111-3-2-1111------------111------------------------
A-3-2-1111-3-2-1111------------111------------------------
C-3-2-1111-3-2-1111------5/6^--111------------------------


Thats all I know right now but I will post more tommorow!
Comments