Slipknot - Sic Chords & Tabs

 

Sic Chords & Tabs

Slipknot Chords & Tabs

Version: 2 Type: Tab 0 ratings
1 star 2 stars 3 stars 4 stars 5 stars
comments

Sic Tab

slipknot- sic      by:Chris Stewart
drop d 1 1/2 steps down

riff #1
----------------------------------------------------------------------
----------------------------------------------------------------------
----------------------------------------------------------------------
----------------------------------------------------------------------
------0--------0--------0--------0--3---------------------------------
---0--0---0--0-0---0--0-0---0--0-0--3---------------------------------

riff #2
----------------------------------------------------------------------
----------------------------------------------------------------------
----------------------------------------------------------------------
----------------------------------------------------------------------
------0--------0--------0--------0--3---------------------------------
---0--0--0-0-0-0--0-0-0-0--0-0-0-0--3---------------------------------

riff #3
then he says "pick up the pace"
----------------------------------------------------------------------
----------------------------------------------------------------------
----------------------------------------------------------------------
----------------------------------------------------------------------
--3---1---------------3---1-------------3---1-------------------------
--3---1--0--0--0--0-0-3---1--0--0--0--0-3---1--0-0-0-0-0-0------------

riff#4
------------------------------------------------------------------------
-----------------------------------------------------------------------
-----------------------------------------------------------------------
-----------------------------------------------------------------------
----------------------------------------------------------------------
---1--0--0--1--0--1--0--1--0--1--4--3--6------------------------------
when the rest of the band kicks in, strum the 5th and 6th string
[ Tab from: http://www.guitartabs.cc/tabs/s/slipknot/sic_tab_ver_2.html ]
riff#5
-----------------------------------------------------------------------
-----------------------------------------------------------------------
------12------------9------------11-------------8----------------------
-------x------------x------------x--------------x----------------------
------10------------7------------9--------------6-----------------------
-----------------------------------------------------------------------
stum each one three times 

riff #6
         pm-----    pm---  
-----------------------------------------------------------------------
-----------------------------------------------------------------------
-------7----------8--------8-------------------------------------------
-------x----------x--------x-------------------------------------------
-------5----------6--------6-------------------------------------------
----------6--0-0-----7--0----------------------------------------------

riff #7                
------------------------------------------------------------------------
-----------------------------------------------------------------------
-----------------------------------------------------------------------
-----------------------------------------------------------------------
-----------------------------------------------------------------------
---0---0---0---0---0---0^1----0---0---0---0---0---0^1------------------
this is played twice

riff#8
----------------------------------------------------------------------
----------------------------------------------------------------------
----------------------------------------------------------------------
---------------3------------------------------------------------------
--0---3---2----1---0--3--2--------------------------------------------
--0---3---2--------0--3--2--------------------------------------------
after this play riff #7 again then go to riff 9 

riff #9
-----------------------------------------------------------------------
-----------------------------------------------------------------------
-----------------------------------------------------------------------
-----5---2---1---2---1---0---5---2---1---2---1---0---5---2---0---2-----
-----5---2---1---2---1---0---5---2---1---2---1---0---5---2---0---2-----
-----5---2---1---2---1---0---5---2---1---2---1---0---5---2---0---2-----
this is played really fast and when he starts screaming "sic" then you 
palm mute it 

well this is it and i know for sure that its right so have fun with it 
Comments