Slipknot - Sic Chords & Tabs

 

Sic Chords & Tabs

Slipknot Chords & Tabs

Version: 14 Type: Tab 0 ratings
1 star 2 stars 3 stars 4 stars 5 stars
comments

Sic Tab

   
Slipknot
(Sic)
B F# B E G# C#

Intro 1:	Intro 2:
|-------------------------------| 	|-------------------------------------|
|-------------------------------| 	|-------------------------------------|
|-------------------------------| 	|-------------------------------------|
|-------------------------------| 	|-------------------------------------|
|-0-0.--0-0-0.--0-0-0.--0-0-0-1-| 	|-0-0.--0-0-0-0.--0-0-0-0.--0-0-0-0-1-|
|-0-0.--0-0-0.--0-0-0.--0-0-0-1-| 	|-0-0.--0-0-0-0.--0-0-0-0.--0-0-0-0-1-|
 
Bridge 1:          Intro 3:
|----| 		|---------------------------------|
|----| 		|---------------------------------|
|----| 		|---------------------------------|
|----| 		|---------------------------------|
|-0.-|		|-2-1-0-0-0.--0-0-2-1-0-0-0-0-0-0-|
|-0.-|		|-2-1-0-0-0.--0-0-2-1-0-0-0-0-0-0-|

Bridge 2:				Bridge 3: 
|-------------------------------|	|-------------------------------|
|-------------------------------|	|-------------------------------|
|-------------------------------|	|-------------------------------|
|-------------------------------|	|-------------------------------|
|-------------------------------|	|-------------------------------|
|-1-0-0-1-0--1-0--1-0-1-4-3-6-0-|	|--1-0--1-0--1-0--1-0-1-4-3-6-0-|

Verse 1: 				Bridge 4:
|---------------------------------| 	|-----------------|
|---------------------------------| 	|-----------------|
|---------------------------------| 	|-----------------|
|---------------------------------| 	|-----------------|
|-1-0-0-1-0.--1-0.--1-0-1-4-3-6-0-|	|-----------------|
|-1-0-0-1-0.--1-0.--1-0-1-4-3-6-0-| 	|-1-0-0-1-0--1-0.-|
[ Tab from: http://www.guitartabs.cc/tabs/s/slipknot/sic_tab_ver_14.html ]
Verse 2:                 Bridge 5:
|-----------------|     |-------------------------------|
|-----------------|     |-------------------------------|
|-----------------|     |-------------------------------|
|-4tr-2tr-3tr-1tr-|     |-------------------------------|
|-----------------|     |-----------------1-0-1-4-3-6-0-|
|-----------------|     |-1-0-0-1-0--1-0--1-0-1-4-3-6-0-|
       
Verse 3:				Bridge 6:
|------------------------------| 	|-----------------|
|------------------------------| 	|-----------------|
|------------------------------| 	|-----------------|
|------------------------------| 	|-----------------|
|-1-0--1-0--1-0--1-0-1-4-3-6-0-|	|-1-0-0-1-0--1-0.-|
|-1-0--1-0--1-0--1-0-1-4-3-6-0-|	|-1-0-0-1-0--1-0.-|

Verse 4:
|-----------------------------------------------------------------|
|-----------------------------------------------------------------|
|-----------------------------------------------------------------|
|-7-------8--------7-----8--------7-------8--------7-----8--------|
|-5-6-0-0-6-7~-0-0-5-0-0-6-7~-0-0-5-6-0-0-6-7~-0-0-5-0-0-6-6~-0-0-|
|-----------------------------------------------------------------|

Verse 5:                 Verse 6:                Bridge 7:
|---------------------| |--------------|        |---------------------|
|---------------------| |--------------|        |---------------------|
|---------------------| |--------------|        |---------------------|
|-7-8-7-8-------------| |-7-8-7-8/11-7-|        |---------------------|
|-5-6-5-6-6-6--6--6-6-| |-5-6-5-6/-9---|        |-0.-0.-0.-0.-0.-0.-1-|
|---------6-6--6--6-6-| |--------------|        |-0.-0.-0.-0.-0.-0.-1-|

Bridge 8:                         Verse 7:
|----------------------|         |-------------------|
|----------------------|         |-------------------|
|----------------------|         |-------------------|
|----------------------|         |----------3--------|
|-0.-0.-0.-0.-0.-0.-0.-|         |-0--3--2--1--0-3-2-|
|-0.-0.-0.-0.-0.-0.-0.-|         |-0--3--2-----0-3-2-|
 
Outro 1:				Outro 2:
|--------------------------------| 	|-------------|   
|--------------------------------| 	|-------------|   
|--------------------------------| 	|-------------|   
|--------------------------------| 	|-------------|   
|-5-2-1-2-1-0--5-2-1-2-1-5-2-1-0-| 	|-------------|   
|-5-2-1-2-1-0--5-2-1-2-1-5-2-1-0-|	|-0-3-2-1-4-0-|  
                  

Song Structure:
Intro 1 x4
Intro 2 x4
Bridge 1

Intro 3 x4
Bridge 2
Bridge 2 & Bridge 3
Verse 1 x4
Bridge 2 x3
Bridge 4
Verse 2 x4
Bridge 5
Verse 1 x4
Verse 3 x3
Bridge 6
Verse 2 x4
Verse 4
Verse 5 x3
Verse 6
Bridge 7 x3
Bridge 8
Verse 7 x4
Bridge 7 x3
Bridge 8
Outro 1 x8
Outro 2 x5
Comments