Slipknot - Sic Chords & Tabs

 

Sic Chords & Tabs

Slipknot Chords & Tabs

Version: 12 Type: Tab 0 ratings
1 star 2 stars 3 stars 4 stars 5 stars
comments

Sic Tab

It's not perfect but pretty close, I know that the Outro and
the solos are perfect though. Have fun with it.

Intro

|-----------------------------|
|-----------------------------|
|-----------------------------|
|-----------------------------|
|-0-2-0-0-2-0-0-2-0-0-0-4-----|
|-3-0-3-3-0-3-3-0-3-3-3-0-----| Repeat until break in music.

Riff 1

|---------------|
|---------------|
|---------------|
|---------------|
|-0-0-2-0-0-2---|
|-3-3-0-3-3-0---| Repeat until solo.

Solo

|----------------------------|
|----------------------------|
|----------------------------|
|----------------------------|
|----------------------------|
|-1-0-0-1-0-1-0-1-0-1-4-3-0--| Play twice, 2nd guitar play only second time.

Riff 2

|-------------------------|
|-------------------------|
|-------------------------|
|-------------------------|
|-1-0-0-1-0-1-0-1-0-1-3-2-|
|-1-0-0-1-0-1-0-1-0-1-4-3-| Play times then go straight to riff 3.

Riff 3

|-----------------|
|-----------------|
|-----------------|
|-----------------|
|-3-0-4-0-3-0-4-0-|
|-0-2-0-3-0-2-0-3-| Play till solo again.

Solo (part 2)

|----------------------|
|----------------------|
|----------------------|
|----------------------|
|--------------------4-|
|1-0-0-1-0-1-0-1-0-1-4-|

Play riff 2 and 3 again then come back here.

Riff 4
[ Tab from: http://www.guitartabs.cc/tabs/s/slipknot/sic_tab_ver_12.html ]
|-------------------------------------------------|
|-------------------------------------------------|
|-------------------------------------------------|
|-------------------------------------------------|
|-----3-----3-----3-----3-----3-----3-----3-----3-|
|-2-2---2-2---2-2---2-2---2-2---2-2---2-2---2-2---|

|---------------------|
|---------------------|
|---------------------|
|---------------------|
|-4-4-4-4-4-4-4-4-4-4-|
|-3-3-3-0-0-3-3-3-0-0-|

Riff 5

|-------------------------------------------|
|-------------------------------------------|
|-------------------------------------------|
|-------------------------------------------|
|-------3-3-4-------3-3-4-------3-3-4-------|
|-2-2-2-------2-2-2-------2-2-2-------2-2-2-|

|-------------|
|-------------|
|-------------|
|-------------|
|---4---6---6-|
|-3---3---3---|

|-------------|
|-------------|
|-------------|
|-------------|
|-------3---4-|
|-2-2-2---2---| Till Corey starts yelling "SIC!"

|-----------------------|
|-----------------------|
|-----------------------|
|-----------------------|
|-------2---------4---5-|
|-3-3-3---3-3-3-3---3---| During "SIC!"

|-----------------------|
|-----------------------|
|-----------------------|
|-----------------------|
|-------4---------4---5-|
|-3-3-3---3-3-3-3---3---|

Outro

|------------------------------|
|------------------------------|
|------------------------------|
|------------------------------|  x2
|-----------2---------------2--|
|-0-3-2--1-----0---3-2---1-----|

An easy song, to play, it wont take you long to learn how to play it,
have fun and stay SIC !
Comments