Slipknot - Sic Chords & Tabs

 

Sic Chords & Tabs

Slipknot Chords & Tabs

Version: 4 Type: Bass Tab 0 ratings
1 star 2 stars 3 stars 4 stars 5 stars
comments

Sic Bass Tab

Slipknot 
(SIC)
tabbed by modus operendi
jamie cushion

Intro 1:	
|----------------------------| 
|----------------------------| 	
|----------------------------| 	
|----------------------------| 	
|-0-0--0-0-0--0-0-0--0-0-0-1-| 	
 
Intro 2:
|-----------------|
|-----------------|
|-----------------|
|-----------------|
|-3-2-1-0--1-0-0--|

Verse 1: 				
|---------------------------------|
|---------------------------------| 	
|---------------------------------| 	
|---------------------------------| 		
|-1-0-0-1-0.--1-0.--1-0-1-4-3-6-0--| 	
[ Tab from: http://www.guitartabs.cc/tabs/s/slipknot/sic_btab_ver_4.html ]
Verse 2:
|-----------------|		
|-----------------|	 
|-----------------|	 
|-----------------|	
|-4---2--3---1----|		
                                          
Verse 3:				
|-------------------------| 	
|-------------------------| 
|-------------------------| 	
|-------------------------| 
|-1-1-0-1-0-1-0-1-3-2-1-0-| 

Verse 4:
|-----------------------------------------------------------------|
|-----------------------------------------------------------------|
|-----------------------------------------------------------------|
|-----------------------------------------------------------------|
|-5-6-0-0-6-7~-0-0-5-0-0-6-7~-0-0-5-6-0-0-6-7~-0-0-5-0-0-6-6~-0-0-|	

Outro 1:				
|--------------------------------| |-------------|  	  
|--------------------------------| |-------------|   
|--------------------------------| |-------------|   
|--------------------------------| |-------------|   
|-5-2-1-2-1-0--5-2-1-2-1-5-2-1-0-| |-0-3-2-1-4-0-|
Comments