Slipknot - Purity Chords & Tabs

 

Purity Chords & Tabs

Slipknot Chords & Tabs

Version: 5 Type: Tab 0 ratings
1 star 2 stars 3 stars 4 stars 5 stars
comments

Purity Tab

   
Purity - Slipknot

Tabbed by Tinboy

Tuning B F# B E G# C#

Hope this helps you, I think its pretty much accurate, 
Any improvements would be appreciated. Email address at bottom, thanks.

Intro (x4)

|-------------------------------------------------------------------|
|-------------------------------------------------------------------|
|-------------------------------------------------------------------|
|---0-4-0-0-2-0-1-0-------------------------------------------------| x3
|---0-4-0-0-2-0-1-0-------------------------------------------------|
|---0-4-0-0-2-0-1-0-------------------------------------------------|
PM  - - - - - - - -

|-------------------------------------------------------------------|
|-------------------------------------------------------------------|
|-------------------------------------------------------------------|
|---0-4-0-0-6\------------------------------------------------------|
|---0-4-0-0-6\------------------------------------------------------|
|---0-4-0-0-6\------------------------------------------------------|
PM  - - - -

Intro - Part 2

|-------------------------------------------------------------------|
|-------------------------------------------------------------------|
|-------------------------------------------------------------------|
|---0-4-0-0-2-0-1-0-------------------------------------------------| x15
|---0-4-0-0-2-0-1-0-------------------------------------------------|
|---0-4-0-0-2-0-1-0-------------------------------------------------|

|-------------------------------------------------------------------|
|-------------------------------------------------------------------|
|-------------------------------------------------------------------|
|---0-4-0-0-6---\---------------------------------------------------|
|---0-4-0-0-6---\---------------------------------------------------|
|---0-4-0-0-6---\---------------------------------------------------|
	     (hold then slide)

|---<7>---|
|---------|
|---------|
|---------|
|---------|
|---------|
 (listen for exact picking pattern, quite random actually)

Verse

|-------------------------------------------------------------------|
|-------------------------------------------------------------------|
|-------------------------------------------------------------------|
|---0-4-0-0-2-0-1-0-------------------------------------------------| x2
|---0-4-0-0-2-0-1-0-------------------------------------------------|
|---0-4-0-0-2-0-1-0-------------------------------------------------|

Pre-Chorus

|-------------------------------------------------------------------|
|-------------------------------------------------------------------|
|-------------------------------------------------------------------|
|---0-4-0-0-2-0-1-0-------------------------------------------------| x4
|---0-4-0-0-2-0-1-0-------------------------------------------------|
|---0-4-0-0-2-0-1-0-------------------------------------------------|
PM          - -
   "HANDS ON MY FACE OVERBEARING, I CAN'T GET OUT!"

Verse

|-------------------------------------------------------------------|
|-------------------------------------------------------------------|
|-------------------------------------------------------------------|
|---0-4-0-0-2-0-1-0-------------------------------------------------| x2
|---0-4-0-0-2-0-1-0-------------------------------------------------|
|---0-4-0-0-2-0-1-0-------------------------------------------------|

Pre-Chorus
[ Tab from: http://www.guitartabs.cc/tabs/s/slipknot/purity_tab_ver_5.html ]
|-------------------------------------------------------------------|
|-------------------------------------------------------------------|
|-------------------------------------------------------------------|
|---0-4-0-0-2-0-1-0-------------------------------------------------| x4
|---0-4-0-0-2-0-1-0-------------------------------------------------|
|---0-4-0-0-2-0-1-0-------------------------------------------------|
PM          - -
   "HANDS ON MY FACE OVERBEARING, I CAN'T GET OUT!"

Chorus

|-------------------------------------------------------------------|
|-------------------------------------------------------------------|
|-------------------------------------------------------------------|
|---0-4-4-4-4-4-4-4--0-0-0-0--7-7-7-7-------------------------------|
|---0-4-4-4-4-4-4-4--0-0-0-0--7-7-7-7-------------------------------|
|---0-4-4-4-4-4-4-4--0-0-0-0--7-7-7-7-------------------------------|
   "You all stare, but you'll never see..."

|-------------------------------------------------------------------|
|-------------------------------------------------------------------|
|---8--8-8-8--8--8-8-8--8-------------------------------------------|
|---x--x-x-x--x--x-x-x--x-------------------------------------------| x8
|---6--6-6-6--6--6-6-6--6-------------------------------------------|
|-------------------------------------------------------------------|
 (listen for exact strumming pattern)

|-------------------------------------------------------------------|
|-------------------------------------------------------------------|
|-------------------------------------------------------------------|
|-------------------------------------------------------------------| x8
|--------0-0--------------------------------------------------------|
|---1h4--0-0--------------------------------------------------------|
PM       - -

|-------------------------------------------------------------------|
|-------------------------------------------------------------------|
|-------------------------------------------------------------------|
|---1h4--0-0---1h4--0-0---1h4--0-0---1h4--0-0-----------------------| x8
|---1h4--0-0---1h4--0-0---1h4--0-0---1h4--0-0-----------------------|
|---1h4--0-0---1h4--0-0---1h4--0-0---1h4--0-0-----------------------|
PM       - -        - -        - -        - -

Chorus

|-------------------------------------------------------------------|
|-------------------------------------------------------------------|
|-------------------------------------------------------------------|
|---0-4-4-4-4-4-4-4--0-0-0-0--7-7-7-7-------------------------------|
|---0-4-4-4-4-4-4-4--0-0-0-0--7-7-7-7-------------------------------|
|---0-4-4-4-4-4-4-4--0-0-0-0--7-7-7-7-------------------------------|
   "You all stare, but you'll never see..."

|-------------------------------------------------------------------|
|-------------------------------------------------------------------|
|-------------------------------------------------------------------|
|-------------------------------------------------------------------| x4
|-------------------------------------------------------------------|
|---0-4-0-0-2-0-1-0-0-0-4-0-0-2-0-1-0-------------------------------|

|-------------------------------------------------------------------|
|-------------------------------------------------------------------|
|-------------------------------------------------------------------|
|---0-4-0-0-2-0-1-0-0-0-4-0-0-2-0-1-0-------------------------------| x8
|---0-4-0-0-2-0-1-0-0-0-4-0-0-2-0-1-0-------------------------------|
|---0-4-0-0-2-0-1-0-0-0-4-0-0-2-0-1-0-------------------------------|
   "Purity..."

thats it,

any queries, email tinboy50@hotmail.com
Comments