Slipknot - Purity Chords & Tabs

 

Purity Chords & Tabs

Slipknot Chords & Tabs

Version: 2 Type: Tab 1 rating
1 star 2 stars 3 stars 4 stars 5 stars
comments

Purity Tab

   
Purity
Slipknot

http://www.metalindex.com/tabs/

Tuning : B-F#-B-E-G#-C#

Key:
pm.  - Palm Mute
h    - Hammer 
/    - Slide
x    - Mute String
^    -pitch bend



B -----------------          -----------------
F#-----------------          -----------------
B -0-3-0-1-0-0-1-0- x3 then: -0-3-0-1-4^--4^--   
p.m.___________|           p.m.___|           


[ Tab from: http://www.guitartabs.cc/tabs/s/slipknot/purity_tab_ver_2.html ]
B |-1-4-1-3--x-x-   
F#|-1-4-1-3--x-x-    
B |-1-4-1-3--x-x-  
    




B |-----------------------
F#|-----------------------  
B |-1-1-1-1-1-0--0-3/4----  



B |-7-/-9-7-7-
F#|-x-/-x-x-x-
B |-5-/-7-5-5-




B |------------
F#|------------
B |-1-h-3-x-x--



B |-1-h-3-0-0--
F#|-1-h-3-0-0--
B |-1-h-3-0-0--
	  pm.
          



B |--------------
F#|--------------
B |-0--3-0-1-0-0-


B |-0--3-0-1-0-0-
F#|-0--3-0-1-0-0-
B |-0--3-0-1-0-0-
Comments