Slipknot - Pulse Of The Maggots Chords & Tabs

 

Pulse Of The Maggots Chords & Tabs

Slipknot Chords & Tabs

Version: 8 Type: Tab 0 ratings
1 star 2 stars 3 stars 4 stars 5 stars
comments

Pulse Of The Maggots Tab

   
Key:
Tuning=Dropped B-(low to high) B,F#,B,E,G#,C#
.=Palm Mute
*=Pinched Harmonic
B=Bend
Tr=Tremolo Pick(I Put This Cause The Strikes Are Usually To Fast To Count)
T=Tap With Finger Or Edge Of Pick
P=Pull off
/=Slide Towards Body
=Slide Up Neck

Riff 1A
|--------------------------|
|--------------------------|
|--------------------------|
|-0-0----------------------|
|-0-0----------------------|
|-0-0--0-1-0Tr-0-0-0-3/12B-|
. . . . . . . . 
Riff 1B
|----------------------------|
|----------------------------|
|----------------------------|
|-0-0------------------------|
|-0-0------------------------|
|-0-0--0-1-0Tr-0-0-0-3/13P12-|
. . . . . . . .

Riff 2A(Mick)
|---------------------------------|
|---------------------------------|
|---------------------------------|
|---------------------------------|
|---------------------------------|
|-8p7-8p7-8p7-8p7-8p7-8p7-8p7-8p7-|

Riff 2B(Jim)
|-------------------------------------------------|
|-------------------------------------------------|
|-1514-1514-1514-1514-1514-1514-1514-1514-|
|-------------------------------------------------|
|-1312-1312-1312-1312-1312-1312-1312-1312-|
|-------------------------------------------------|

Riff 3
|------------------------------------|
|------------------------------------|
|------------------------------------|
|-0-1-2---------------3-3-3-5-3-2----|
|-0-1-2---------------3-3-3-5-3-2----|
|-0-1-2--3Tr-4Tr-5Tr--3-3-3-5-3-2----|
. . . . . . . . . . . .

Riff 1A
Riff 1B
Riff 1A
Riff 1B
Riff 1A
Riff 1B
Riff 1A
Riff 1B

Riff 4
|----------------------------|
|----------------------------|
|----------------------------|
|-6-5-6-3-5-3-0-3-0-0--------|
|-6-5-6-3-5-3-0-3-0-0--------|
|-6-5-6-3-5-3-0-3-0-0--------|
. .

Riff 5A
|-------------------------------------------------------|
|-------------------------------------------------------|
|-------------------------------------------------------|
|-0-0---------------------------------------------------|
|-0-0---------------------------------------------------|
|-0-0--0-1-0Tr-0--0-1-3-4-3-4-1-0--0-1-0Tr-0-0-0-3/12B--|
. . . . . . . . . . . .
[ Tab from: http://www.guitartabs.cc/tabs/s/slipknot/pulse_of_the_maggots_tab_ver_8.html ]
Riff 5B
|---------------------------------------------------------|
|---------------------------------------------------------|
|---------------------------------------------------------|
|-0-0-----------------------------------------------------|
|-0-0-----------------------------------------------------|
|-0-0--0-1-0Tr-0--0-1-3-4-3-4-1-0---0-1-0Tr-0-0-0-3/13p12-|
. . . . . . . . . . . .


Riff 4
Riff 4
Riff 4
Riff 4

Riff 1A

Riff 5A
Riff 5B
Riff 5A
Riff 5B

Riff 4
Riff 4
Riff 4
Riff 4

Riff6
|-----------------------------------------------|
|-----------------------------------------------|
|-----------------------------------------------|
|-15Tr--14Tr--13Tr-14Tr-13Tr-9Tr----------------|
|-----------------------------------------------|
|-----------------------------------------------|

These Solo's Are ***in Crazy! I Got A lil Tiny Bit
Not Correct Completely But Hey Atleast I Tried lol.

Solo 1(Mick)
Solo 2(Jim) Vibrato ***
Solo 3(Mick)

Solo 3(Jim) Rythym ? lol
|-------------------------------------------------------------|
|-------------------------------------------------------------|
|-------------------------------------------------------------|
|-11p10-11p10-11p10-11p10-11p10-11p10-11p10-0-0-0-3-0-0-5-0-0-| ?
|-------------------------------------------0-0-0-3-0-0-5-0-0-|
|-------------------------------------------0-0-0-3-0-0-5-0-0-|
. . . . . . . .

Solo 4(Jim) Start It With a Palm Muted Scale I Do My Own For This Solo

Solo 4(Jim) Part Of The Ending Thingy
|-T18p17p15-T18p17p15-T18p17p15-T18p17p15-T18p17p15-|
|---------------------------------------------------|
|---------------------------------------------------|
|---------------------------------------------------|
|---------------------------------------------------|
|---------------------------------------------------|


Riff 7
|--------------------------------|
|--------------------------------|
|--------------------------------|
|--------------------------------|
|--------------------------------|
|-0-0-0-3*--0-0-0-3*-0h1-0h2-0h3-|
. . . . . . 


Riff 5A Ok This
Riff 5B Time
Riff 5A Tremolo Pick
Riff 5B Alot


Riff 4
Riff 4
Riff 4
Riff 4

Riff 6
Riff 6
Riff 6
Riff 6

Riff 7
|------------------------------------------|
|------------------------------------------|
|------------------------------------------|
|------------------------------------------|
|------------------------------------------|
|-0-0-0-3*--0-0-0-3*--0h1-0h2-0h3-0h1-0----|
. . . . . . 

Crazy Soloing

Riff 8
|-------|
|-------|
|-------|
|-1-2-3-|
|-1-2-3-|
|-1-2-3-|
. . .
Comments