Slipknot - Pulse Of The Maggots Chords & Tabs

 

Pulse Of The Maggots Chords & Tabs

Slipknot Chords & Tabs

Version: 6 Type: Tab 0 ratings
1 star 2 stars 3 stars 4 stars 5 stars
comments

Pulse Of The Maggots Tab

   
Pulse of the Maggots
 Solo

Tabbed by:  George Frost
Email:      george@ezaypage.fslife.co.uk

Tuning:     Drop B (B F# B E G# C#)
Tempo:      192

This is a stupidly hard shred solo, so take it bar by bar, mastering each in
turn. Use sweep picking and hard alternate picking. Be careful of the three
stage bends and the string skipping when sweeping.
[ Tab from: http://www.guitartabs.cc/tabs/s/slipknot/pulse_of_the_maggots_tab_ver_6.html ]
   A#dim5
C#|-22-15-18p16-17h19-20-23-19h22----------19-19-19-22p19----16-16-20-17-17-20-|
G#|-------------------------------19-22p19-------------------------------------|
E |-------------------------------------------------------21-------------------|
B |----------------------------------------------------------------------------|
F#|----------------------------------------------------------------------------|
B |----------------------------------------------------------------------------|
                                                                B5
C#|-16-16-19-------------------------------------18-20\13----/21-19-/21---x--x-|
G#|-------------------19-20\18-------18----20p18----------13-------------------|
E |----------17-16-16----------16/18----20-----------------------------19------|
B |----------------------------------------------------------------------------|
F#|----------------------------------------------------------------------------|
B |----------------------------------------------------------------------------|
    Cdim5            A#dim5
C#|-23-23-23b27----------------------------------------------------------------|
G#|-------------15-15b19r17b19r17b19r17b19r15-15b19r17b19r17b19r17b19r17-------|
E |----------------------------------------------------------------------------|
B |----------------------------------------------------------------------------|
F#|----------------------------------------------------------------------------|
B |----------------------------------------------------------------------------|
							  B5
C#|----------------------------------------------------------------------------|
G#|-15b19r17b19r17b19r15-15-15b19r17b19r17b19r15-15h17-15-------15-------------|
E |-------------------------------------------------------17p16----17-15-14----|
B |-------------------------------------------------------------------------17-|
F#|----------------------------------------------------------------------------|
B |----------------------------------------------------------------------------|
					G#dim5
C#|-----------------------------------------------------------12h15-18h15------|
G#|--------------------------------------------------------14-------------17---|
E |--------------------------------------------------12h15---------------------|
B |-15-17p15-17p15-------17p16-12p14-10-12p9------14---------------------------|
F#|----------------18p16---------------------10p8------------------------------|
B |----------------------------------------------------------------------------|

C#|-------------------------/18-15-------------------15-18/21p18---------------|
G#|-------------------17h17--------17----------17-17-------------20p17---------|
E |-18p15----------15-----------------18-15----------------------------18------|
B |-------17p15-17--------------------------17----------------------------20---|
F#|----------------------------------------------------------------------------|
B |----------------------------------------------------------------------------|
						    B5                C#dim5
C#|-21p18-21p18-------------------------------------------18h21----------------|
G#|-------------20p17----------20-------------------------------20p17----------|
E |----------------------18h21----21p18----18h21b24-21b24----------------18-21-|
B |-------------------20----------------20----------------------------20-------|
F#|----------------------------------------------------------------------------|
B |----------------------------------------------------------------------------|
		      A#dim7
C#|----------------------------------------------------------------------------|
G#|-20-------------------------------------------------------------------------|
E |----21----18-21-19----------------------10----------10-10-12-12-14-14-12-10-|
B |-------20----------8-8-10-8-10-10-11-11----11-10-11-------------------------|
F#|----------------------------------------------------------------------------|
B |----------------------------------------------------------------------------|

C#|-------------------12-12-------12-12-17-15-13-12-13-12----15-18-17-18-15-18-|
G#|----15-13-15-13-12-------15-13-------------------------15-------------------|
E |-12-------------------------------------------------------------------------|
B |----------------------------------------------------------------------------|
F#|----------------------------------------------------------------------------|
B |----------------------------------------------------------------------------|
			    C#dim5
C#|-14-18-15-18-17-18-15-18-14-15-17-15-14-------------------------------------|
G#|----------------------------------------17-15-14----------------------------|
E |----------------------------------------------------------------------------|
B |----------------------------------------------------------------------------|
F#|----------------------------------------------------------------------------|
B |----------------------------------------------------------------------------|

|=-Legend-Of-Symbols-==========================================================|
| /     slide up							       |
| \     slide down						               |
| h     hammer-on							       |
| p     pull-off							       |
| ~     vibrato   							       |
| ()    harmonic							       |
| x     mute note							       |
| pm    palm muting							       |
|==============================================================================|
Comments