Slipknot - Pulse Of The Maggots Chords & Tabs

 

Pulse Of The Maggots Chords & Tabs

Slipknot Chords & Tabs

Version: 4 Type: Tab 0 ratings
1 star 2 stars 3 stars 4 stars 5 stars
comments

Pulse Of The Maggots Tab

Slipknot - Pulse of the maggots


ph - pinch harmonics
pm - palm mute
\ - slide
~~ - vibrato

              x2                      x8
c# |-----------------------------||------------||-----------------------------------------------|
g# |-----------------------------||------------||-----------------------------------------------|
e  |-----------------------------||----15\14---||-----------------------------------------------| 
b  |-0-0-------------------------||------------||---7-8-9----------------------3-3-3-4-3-2------|
f# |-0-0-------------------------||----13\12---||---7-8-9----------------------3-3-3-4-3-2------|
B  |-0-0-011-3-0-0-0-3-5\12~~----||------------||---7-8-9-888-101010-11-11-11--3-3-3-4-3-2------|
                                                    PM <-------------------------------->


|-----------------------------|
|-----------------------------|
|-----------------------------|
|-0-0-------------------------| x8
|-0-0-------------------------|
|-0-0-0-1-1-3-0-0-0-3-5\12~~--|

|-----------------------------|
|-----------------------------|
|-----------------------------|
|--6-5-6-3-5-3-5-1------------|x1
|--6-5-6-3-5-3-5-1------------|
|--6-5-6-3-5-3-5-1------------|
[ Tab from: http://www.guitartabs.cc/tabs/s/slipknot/pulse_of_the_maggots_tab_ver_4.html ]
|-----------------|---------------------|-----------------------------------------|
|-----------------|---------------------|-----------------------------------------|
|-----------------|---------------------|-----------------------------------------|
|--0-0------0-0---|--0-1\3\5/3-0-0------|---0-0-----------------------------------| x5
|--0-0------0-0---|--0-1\3\5/3-0-0------|---0-0-----------------------------------|
|--0-0-0333-0-0---|--0-1\3\5/3-0-0------|---0-0-0-1-1-3-0-0-0-3-5\12--------------|


|-----------------------------|
|-----------------------------|
|-----------------------------|
|--6-5-6-3-5-3-5-1------------|x4
|--6-5-6-3-5-3-5-1------------|
|--6-5-6-3-5-3-5-1------------|

|-----------------------------|
|-----------------------------|
|-----------------------------|
|-0-0-------------------------| x1
|-0-0-------------------------|
|-0-0-0-1-1-3-0-0-0-3-5\12~~--|


|-----------------|---------------------|-----------------------------------------|
|-----------------|---------------------|-----------------------------------------|
|-----------------|---------------------|-----------------------------------------|
|--0-0------0-0---|--0-1\3\5/3-0-0------|---0-0-----------------------------------| x5
|--0-0------0-0---|--0-1\3\5/3-0-0------|---0-0-----------------------------------|
|--0-0-0333-0-0---|--0-1\3\5/3-0-0------|---0-0-0-1-1-3-0-0-0-3-5\12--------------|
   pm 
|-----------------------------|
|-----------------------------|
|-----------------------------|
|--6-5-6-3-5-3-5-1------------|x4
|--6-5-6-3-5-3-5-1------------|
|--6-5-6-3-5-3-5-1------------|


--SOLOS--


|--------------------------------------|
|--------------------------------------|
|--------------------------------------|
|--0-0-0----0-0-0------2-3-4-1---------|
|--0-0-0----0-0-0------2-3-4-1---------|
|--0-0-0-3~~0-0-0-3~~--2-3-4-1---------|
   pm    ph       ph
Comments