Slipknot - Pulse Of The Maggots Chords & Tabs

 

Pulse Of The Maggots Chords & Tabs

Slipknot Chords & Tabs

Version: 10 Type: Tab 0 ratings
1 star 2 stars 3 stars 4 stars 5 stars
comments

Pulse Of The Maggots Tab

   
Band- Slipknot
Song- Pulse Of The Maggots

Gtr I (B F# B E G# C#) - 'Untitled'
Gtr II (B F# B E G# C#) - 'Untitled'

 Intro
  Q=180
  N.C.
 4/4
  Gtrs I, II
                                  ~~                                   ~~
  E E Q.   E S S S S   E E E Q.   Q    E E Q.   E S S S S   E E E Q.   Q
|--------------------|---------------|--------------------|-----------------|
|--------------------|---------------|--------------------|-----------------|
|--------------------|---------------|--------------------|-----------------|
|--------------------|---------------|--------------------|-----------------|
|--------------------|---------------|--------------------|-----------------|
|-0-0------0-1-1-1-1-|-0-0-0-3S==13--|-0-0------0-1-1-1-1-|-0-0-0-3S==13----|


   E  E  E  E  E  E  E  E    E  E  E  E  E  E  Q
|-------------------------|-----------------------|
|-------------------------|-----------------------|
|-------------------------|-----------------------|
|-------------------------|-----------------------|
|-13p12-13p12-13p12-13p12-|-13p12-13p12-13p12-13--|
|-------------------------|-----------------------|


  Bb5B5 C5                     F5 F5
  q  q  q  S S E   S S E S S E q  q
|----------------|---------------------|
|----------------|---------------------|
|-3--4--5--------|---------------------|
|-3--4--5--------|-------------3--3----|
|-1--2--3--1-1-1-|-3-3-3-4-4-4-3--3----|
|----------------|-------------3--3----|


  F5 Gb5F5 Eb5    N.C.
                                                  ~~
  q  q  q  q      E E Q.   E S S S S   E E E Q.   Q    E E Q.   E S S S S
|-------------||---------------------|---------------|---------------------|
|-------------||o--------------------|---------------|---------------------|
|-------------||---------------------|---------------|---------------------|
|-3--4--3--1--||---------------------|---------------|---------------------|
|-3--4--3--1--||o--------------------|---------------|---------------------|
|-3--4--3--1--||--0-0------0-1-1-1-1-|-0-0-0-3S==13--|-0-0------0-1-1-1-1--|


                        G#5  G5     F5 G5F5
             ~~
  E E E Q.   Q   4x E E Q.   Q.     Q  E Q  E E E
|----------------||---------------|---------------|
|---------------o||---------------|---------------|
|----------------||---------------|---------------|
|----------------||-----6----5----|-3--5-3--------|
|---------------o||-----6----5----|-3--5-3--------|
|-0-0-0-3S==13---||-0-0-6----5----|-3--5-3--0-1-0-|


   Verse
    $
                                  D5EbF5
    E E Q.   E S S S S   E E Q.   E E E
||---------------------|----------------|
||o--------------------|----------------|
||---------------------|----------------|
||---------------------|----------0-1-3-|
||o--------------------|----------0-1-3-|
||--0-0------0-1-1-1-1-|-0-0------0-1-3-|


  GbF5EbD5
                                   ~~
  E E E E E E S S S S   E E E Q.   Q   4x
|---------------------|----------------||
|---------------------|---------------o||
|---------------------|----------------||
|-4-3-1-0-------------|----------------||
|-4-3-1-0-------------|---------------o||
|-4-3-1-0---0-1-1-1-1-|-0-0-0-3S==13---||


 Chorus
      G#5  G5     F5 G5F5             G#5  G5     F5 G5F5
  E E Q.   Q.     Q  E Q  E E E   E E Q.   Q.     Q  E Q  E E E
|---------------|---------------|---------------|---------------|
|---------------|---------------|---------------|---------------|
|---------------|---------------|---------------|---------------|
|-----6----5----|-3--5-3--------|-----6----5----|-3--5-3--------|
|-----6----5----|-3--5-3--------|-----6----5----|-3--5-3--------|
|-0-0-6----5----|-3--5-3--0-1-0-|-0-0-6----5----|-3--5-3--0-1-0-|


                                                         To Coda
      G#5  G5     F5 G5F5             G#5  G5     F5 G5F5
  E E Q.   Q.     Q  E Q  E E E   E E Q.   Q.     Q  E Q  E E E
|---------------|---------------|---------------|-----------------|
|---------------|---------------|---------------|-----------------|
|---------------|---------------|---------------|-----------------|
|-----6----5----|-3--5-3--------|-----6----5----|-3--5-3----------|
|-----6----5----|-3--5-3--------|-----6----5----|-3--5-3----------|
|-0-0-6----5----|-3--5-3--0-1-0-|-0-0-6----5----|-3--5-3--0-1-0---|


                        D.S. al Coda
                                  ~~
  E E Q.   E S S S S   E E E Q.   Q
|--------------------|---------------|
|--------------------|---------------|
|--------------------|---------------|
|--------------------|---------------|
|--------------------|---------------|
|-0-0------0-1-1-1-1-|-0-0-0-3S==13--|


   Interlude
    &
    N.C.
    Gtr I
     TP   TP    TP  TP TPTP             TP   TP    TP  TP TPTP
     H    Q.    E   Q  E H       +E     H    Q.    E   Q  E H       +E
||----------------|------------------|---------------|--------------------||
||o---------------|------------------|---------------|-------------------o||
||----------------|------------------|---------------|--------------------||
||----------------|------------------|---------------|--------------------||
||o--3----2-----3-|-0--2-0-------(0)-|--3----2-----3-|-0--2-0-------(0)--o||
||----------------|------------------|---------------|--------------------||
|
|   Gtr II
|    TP   TP    TP  TP TPTP TP TP TP    TP   TP    TP  TP TPTP TP TP TP
|    H    Q.    E   Q  E Q  E  E  E     H    Q.    E   Q  E Q  E  E  E
||----------------|------------------|---------------|--------------------||
||o---------------|------------------|---------------|-------------------o||
||--10----9----10-|-7--9-7-----------|-10----9----10-|-7--9-7-------------||
||----------------|---------9-10--9--|---------------|---------9-10--9----||
||o---------------|------------------|---------------|-------------------o||
||----------------|------------------|---------------|--------------------||


 Solo
  Bb5C5 Bb5Db5   Db
                                      |---3---|
   S  S  S  S  S  S  E  +S   S  S  S  E  E    E
|----------16-17h19-20-(20)-23-19h22------------|
|-------17---------------------------19-22p==19-|
|-16-16-----------------------------------------|
|-----------------------------------------------|
|-----------------------------------------------|
|-----------------------------------------------|
|
|  E     E     E     Q          E     E    E
|-----------------------------------------------|
|-----------------------------------------------|
|--3-----5-----3-----6--------------------------|
|--3-----5-----3-----6--------------------------|
|--1-----3-----1-----4----------4-----4----4----|
|-----------------------------------------------|


   |------3-------|       |--3--|  |------3-------|
   S  S  S  S  S  S  +E   S  S  S  S  S  S  S  S  S  S  S  S  S
|-19-19-19-22p19---------16-16-20-17-17-20-16-16-19--------------|
|----------------21-(21)-------------------------------------19--|
|---------------------------------------------------17-16-16-----|
|----------------------------------------------------------------|
|----------------------------------------------------------------|
|----------------------------------------------------------------|
|
|  E        E         E   E        E        E        E     E
|----------------------------------------------------------------|
|----------------------------------------------------------------|
|----------------------------------------------------------------|
|----------------------------------------------------------------|
|--4--------4---------4---4--------4--------4--------4-----4-----|
|----------------------------------------------------------------|


  Bb5   C5    Bb5   Db5                  D5
                     |--3--|              |--3--|
   S  S  S  S  S  S  S  S  S  E  E  S  S  S  S  S
|-------------------------18-20s13-------------19-|
|-20s18-------18----20p18----------18----20p18----|
|-------16s18----20-------------------20----------|
|-------------------------------------------------|
|-------------------------------------------------|
|-------------------------------------------------|
|
|  E     E     E     Q           E  E     E
|-------------------------------------------------|
|-------------------------------------------------|
|--3-----5-----3-----6----------------------------|
|--3-----5-----3-----6--------------------0-------|
|--1-----3-----1-----4-----------4--4-----0-------|
|-----------------------------------------0-------|


                   Bb5
                    |--3--|
   +E   S  S  S  S  S  S  S     +E  E  E  E
|-(19)-------------23-23-23b27-(23)---------|
|------18----20p18--------------------15-15-|
|---------20--------------------------------|
|-------------------------------------------|
|-------------------------------------------|
|-------------------------------------------|
|
|  +E   E     E     Q               E  E  E
|-------------------------------------------|
|-------------------------------------------|
|-------------------3-----------------------|
|--(0)--------------3-----------------------|
|--(0)--------------1---------------1--1--1-|
|--(0)--0-----0-----------------------------|


  Bb5   C5BbDb5
   E    E E Q       E E E    E    E E E   E  E E  E
|-------------------------|----------------------------|
|-------------------------|----------------------------|
|--3----5-3-6-------------|----------------------------|
|--3----5-3-6-------------|----------------------------|
|--1----3-1-4-------4-4-4-|--4----4-4-4---4--4-4--4----|
|-------------------------|----------------------------|
|
|  ~~~~~~~~~~~~~~~~~~~~~~~~~~~~~~~~~~~~~~~~~~
|  H           H             H           +Q.      S  S
|-------------------------|----------------------------|
|-17b19-------17b19-------|-17b19-------(17)-----15h17-|
|-------------------------|----------------------------|
|-------------------------|----------------------------|
|-------------------------|----------------------------|
|-------------------------|----------------------------|


  Bb5   C5    Bb5      Db5                       D5
   E     E     E       Q              E     E     E
|------------------------------------------------------|
|------------------------------------------------------|
|--3-----5-----3-------6-------------------------------|
|--3-----5-----3-------6--------------------------0----|
|--1-----3-----1-------4--------------4-----4-----0----|
|-------------------------------------------------0----|
|
|              |------5------|
|  S  S  S  S  S  S  S    S  S  S  S  S  S  S  S  S  S
|------------------------------------------------------|
|-15-------15------------------------------------------|
|----17p16----17-15-14---------------------------------|
|------------------------17-15-17p15-17p15-------17p16-|
|------------------------------------------18p16-------|
|------------------------------------------------------|


            Bb5
  +E   E  E  Q         E   E  E
|-------------------------------|
|-------------------------------|
|------------3------------------|
|-(0)--------3------------------|
|-(0)--------1---------1---1--1-|
|-(0)--0--0---------------------|
|
|  E   E  E  S S  S S +E  +Q
|-------------------------------|
|-------------------------------|
|-------------------------------|
|-12--14-10-12p9----------------|
|----------------10p8-(8)-(8)---|
|-------------------------------|


  Bb5C5 Bb5Db5   C                 C
                     |--3--|
   S  S  S  S  S  S  S  S  S  S  S  S  S  S  S  S  S
|-------------12h15-18p15----------------------------|
|----------14-------------17-------------------14h17-|
|----12h15-------------------18p15----------15-------|
|-14-------------------------------17p15-17----------|
|----------------------------------------------------|
|----------------------------------------------------|
|
|  E     E     E     Q              E     E     E
|----------------------------------------------------|
|----------------------------------------------------|
|--3-----5-----3-----6--------------------6----------|
|--3-----5-----3-----6--------------5-----------5----|
|--1-----3-----1-----4-------------------------------|
|----------------------------------------------------|


             |--3--|
    E  S  S  S  S  S  S  S  S  S  S  S  S  S  S  S
|-/18-15-------------------15-18s21p18--------------|
|--------17----------17-17-------------20p17--------|
|-----------18-15----------------------------18-----|
|-----------------17----------------------------20--|
|---------------------------------------------------|
|---------------------------------------------------|
|
|   E  E     E        E     E     E     E     E
|---------------------------------------------------|
|---------------------------------------------------|
|---6--------6--------------6-----------6-----------|
|------5--------------5-----------5-----------5-----|
|---------------------------------------------------|
|---------------------------------------------------|

[ Tab from: http://www.guitartabs.cc/tabs/s/slipknot/pulse_of_the_maggots_tab_ver_10.html ]
  Bb5   C5    Bb5   Db5                                 D5
                     |--3--|  |------6-------|
   S  S  S  S  S  S  S  S  S  S  S  S  S  S  S      +E   E
|-21p18-21p18---------------------------------------------------|
|-------------20p17----------20---------------------------------|
|----------------------18h21----21p18----18h21b23==(21)-21pb24==|
|-------------------20----------------20------------------------|
|---------------------------------------------------------------|
|---------------------------------------------------------------|
|
|  E     E     E     Q                 E             E   E
|---------------------------------------------------------------|
|---------------------------------------------------------------|
|--3-----5-----3-----6------------------------------------------|
|--3-----5-----3-----6-----------------------------------0------|
|--1-----3-----1-----4-----------------4-------------4---0------|
|--------------------------------------------------------0------|


                    C
                     |--3--|
   +E    S  S  S  S  S  S  S  S  S  S  S  S  S  +E
|-------18h21---------------------------------------|
|-------------20p17----------20---------------------|
|-(21)r----------------18-21----21----18-21-19-(19)-|
|-------------------20-------------20---------------|
|---------------------------------------------------|
|---------------------------------------------------|
|
|                    ~~
|  +E    E     E     H                          +E
|---------------------------------------------------|
|--------------------5--------------------------(5)-|
|--------------------3--------------------------(3)-|
|--(0)----------------------------------------------|
|--(0)----------------------------------------------|
|--(0)---0-----0------------------------------------|


  Bb5 C5   Bb5   Db5         C
  E    E    E     Q           E     E     E
|----------------------------------------------|
|----------------------------------------------|
|-3----5----3-----6-----------------6----------|
|-3----5----3-----6-----------5-----------5----|
|-1----3----1-----4----------------------------|
|----------------------------------------------|
|
| S S  S S  S  S  S  S  S  S  S  S  S  S  S  S
|----------------------------------------------|
|----------------------------------------------|
|----------------------10----------10-10-12-12-|
|-8-8-10-8-10-10-11-11----11-10-11-------------|
|----------------------------------------------|
|----------------------------------------------|


   E     E     E     E     E     E     E     E
|-------------------------------------------------|
|-------------------------------------------------|
|--6-----------6-----------6-----------6----------|
|--------5-----------5-----------5-----------5----|
|-------------------------------------------------|
|-------------------------------------------------|
|
|  S  S  S  S  S  S  S  S  S  S  S  S  S  S  S  S
|-------------------------------12-12-------12-12-|
|----------------15-13-15-13-12-------15-13-------|
|-14-14-12-10-12----------------------------------|
|-------------------------------------------------|
|-------------------------------------------------|
|-------------------------------------------------|


  Bb5   C5    Bb5   Db5                    D5
   E     E     E    Q           E     E     E
|------------------------------------------------|
|------------------------------------------------|
|--3-----5-----3----6----------------------------|
|--3-----5-----3----6-----------------------0----|
|--1-----3-----1----4-----------4-----4-----0----|
|-------------------------------------------0----|
|
|              |---3---|
|  S  S  S  S  E  E    E  S  S  S  S  S  S  S  S
|-17-15-13-12-13-12------15-18-17-18-15-18-14-18-|
|---------------------15-------------------------|
|------------------------------------------------|
|------------------------------------------------|
|------------------------------------------------|
|------------------------------------------------|


                     C
                     ~
  +E      E     E    H                      +E
|--------------------------------------------------|
|--------------------5----------------------(5)----|
|--------------------3----------------------(3)----|
|-(0)----------------------------------------------|
|-(0)----------------------------------------------|
|-(0)-----0-----0----------------------------------|
|
|               |---3---|
|  S   S  S  S  E  E    E  S  S  S  S  S  S  S   S
|-15--18-17-18-15-18---14-15-17-15-14--------------|
|-------------------------------------17-15-14--12-|
|--------------------------------------------------|
|--------------------------------------------------|
|--------------------------------------------------|
|--------------------------------------------------|


   Pre-Verse
      Eb5                     Eb5F5 Gb5   Eb5                     Eb5F5 Gb5
    Gtrs I, II
           ~~~            ~~~                  ~~~            ~~~
    E E E  Q   E E E   E  Q   Q  Q  E   E E E  Q   E E E   E  Q   Q  Q  E   4x
||-------------------|----------------|------------------|------------------||
||o------------------|----------------|------------------|-----------------o||
||-------------------|----------------|------------------|------------------||
||----1--------------|--------1--3--4-|---1--------------|--------1--3--4---||
||o---1--------------|--------1--3--4-|---1--------------|--------1--3--4--o||
||--0-1-0-[3]--0-0-0-|-0-[3]--1--3--4-|-0-1-0-[3]--0-0-0-|-0-[3]--1--3--4---||


   Verse
                                  D5EbF5
    E E Q.   E S S S S   E E Q.   E E E
||---------------------|----------------|
||o--------------------|----------------|
||---------------------|----------------|
||---------------------|----------0-1-3-|
||o--------------------|----------0-1-3-|
||--0-0------0-1-1-1-1-|-0-0------0-1-3-|


  GbF5EbD5
                                   ~~
  E E E E E E S S S S   E E E Q.   Q   4x
|---------------------|----------------||
|---------------------|---------------o||
|---------------------|----------------||
|-4-3-1-0-------------|----------------||
|-4-3-1-0-------------|---------------o||
|-4-3-1-0---0-1-1-1-1-|-0-0-0-3S==13---||


   Chorus
        G#5     G5  Gb5     F5          G#5     G5  Gb5     F5
    E E Q.   Q.     Q  E Q  E E E   E E Q.   Q.     Q  E Q  E E E
||----------------|---------------|---------------|-----------------||
||o---------------|---------------|---------------|----------------o||
||----------------|---------------|---------------|-----------------||
||------6----5----|-3--5-3--------|-----6----5----|-3--5-3----------||
||o-----6----5----|-3--5-3--------|-----6----5----|-3--5-3---------o||
||--0-0-6----5----|-3--5-3--0-1-0-|-0-0-6----5----|-3--5-3--0-1-0---||


   Interlude
    N.C.
    Gtr I
     TP   TP    TP  TP TPTP             TP   TP    TP  TP TPTP
     H    Q.    E   Q  E H       +E     H    Q.    E   Q  E H       +E
||----------------|------------------|---------------|--------------------||
||o---------------|------------------|---------------|-------------------o||
||----------------|------------------|---------------|--------------------||
||----------------|------------------|---------------|--------------------||
||o--3----2-----3-|-0--2-0-------(0)-|--3----2-----3-|-0--2-0-------(0)--o||
||----------------|------------------|---------------|--------------------||
|
|   Gtr II
|    TP   TP    TP  TP TPTP TP TP TP    TP   TP    TP  TP TPTP TP TP TP
|    H    Q.    E   Q  E Q  E  E  E     H    Q.    E   Q  E Q  E  E  E
||----------------|------------------|---------------|--------------------||
||o---------------|------------------|---------------|-------------------o||
||--10----9----10-|-7--9-7-----------|-10----9----10-|-7--9-7-------------||
||----------------|---------9-10--9--|---------------|---------9-10--9----||
||o---------------|------------------|---------------|-------------------o||
||----------------|------------------|---------------|--------------------||


   Outro
      Eb5                     Eb5F5 Gb5   Eb5                     Eb5F5 Gb5
    Gtrs I, II
           ~~~            ~~~                  ~~~            ~~~
    E E E  Q   E E E   E  Q   Q  Q  E   E E E  Q   E E E   E  Q   Q  Q  E
||-------------------|----------------|------------------|------------------||
||o------------------|----------------|------------------|-----------------o||
||-------------------|----------------|------------------|------------------||
||----1--------------|--------1--3--4-|---1--------------|--------1--3--4---||
||o---1--------------|--------1--3--4-|---1--------------|--------1--3--4--o||
||--0-1-0-[3]--0-0-0-|-0-[3]--1--3--4-|-0-1-0-[3]--0-0-0-|-0-[3]--1--3--4---||


       Eb5
    Gtr I
     S  S  S  S  S  S  S   S  S  S  S  S  S  S  S  S
||--15-18-17-18-15-18-14--18-15-18-17-18-15-18-14-18-|
||o--------------------------------------------------|
||---------------------------------------------------|
||---------------------------------------------------|
||o--------------------------------------------------|
||---------------------------------------------------|
|
|   Gtr II
|                      ~~~
|    E     E     E     Q            E     E     E
||---------------------------------------------------|
||o--------------------------------------------------|
||---------------------------------------------------|
||---------1-----------------------------------------|
||o--------1-----------------------------------------|
||---0-----1-----0----[3]-----------0-----0-----0----|


            Eb5   F5      Gb5
                |---3---|
   S  S  S   S  E  E    E  S  S  S  S  S  S  +E   3x
|-15-18-17--18-15-18---14-15-17-15-14-------------||
|-------------------------------------17-15-(15)-o||
|-------------------------------------------------||
|-------------------------------------------------||
|------------------------------------------------o||
|-------------------------------------------------||
|
|        ~~~
|  E     Q           Q           Q            E   3x
|-------------------------------------------------||
|------------------------------------------------o||
|-------------------------------------------------||
|--------------------1-----------3------------4---||
|--------------------1-----------3------------4--o||
|--0----[3]----------1-----------3------------4---||


   S  S  S  S  S  S  S   S  S  S  S  S  S  S  S  S
|-15-18-17-18-15-18-14--18-15-18-17-18-15-18-14-18-|
|--------------------------------------------------|
|--------------------------------------------------|
|--------------------------------------------------|
|--------------------------------------------------|
|--------------------------------------------------|
|
|                    ~~~
|  E     E     E     Q            E     E     E
|--------------------------------------------------|
|--------------------------------------------------|
|--------------------------------------------------|
|--------1-----------------------------------------|
|--------1-----------------------------------------|
|--0-----1-----0----[3]-----------0-----0-----0----|


            Eb5   F5      Gb5
                                       1/4
                |---3---|
   S  S  S   S  E  E    E  +E   Q   E    +Q
|-15-18-17--18-15-18---14-(14)-15--23-|-(23)--*|
|-------------------------------------|-------*|
|-------------------------------------|-------*|
|-------------------------------------|-------*|
|-------------------------------------|-------*|
|-------------------------------------|-------*|
|
|        ~~~
|  E     Q           Q          Q   E    +Q
|-------------------------------------|-------*|
|-------------------------------------|-------*|
|-------------------------------------|-------*|
|--------------------1----------3---4-|--(4)--*|
|--------------------1----------3---4-|--(4)--*|
|--0----[3]----------1----------3---4-|--(4)--*|


Duration Legend
---------------
W - whole; H - half; Q - quarter; E - 8th; S - 16th; T - 32nd; X - 64th; a - acciaccatura
+ - note tied to previous; . - note dotted; .. - note double dotted
Uncapitalized letters represent notes that are staccato (1/2 duration)
Irregular groupings are notated above the duration line
Duration letters will always appear directly above the note/fret number it represents the
duration for.  Duration letters with no fret number below them represent rests.  Multi-
bar rests are notated in the form Wxn, where n is the number of bars to rest for.  Low
melody durations appear below the staff

Tablature Legend
----------------
 h   - hammer-on
 p   - pull-off
 b   - bend
 pb  - pre-bend
 r   - bend release (if no number after the r, then release immediately)
 /\  - slide into or out of (from/to "nowhere")
 s   - legato slide
 S   - shift slide
  - natural harmonic
[n]  - artificial harmonic
n(n) - tapped harmonic
 ~   - vibrato
 tr  - trill
 T   - tap
 TP  - trem. picking
 PM  - palm muting
\n/  - tremolo bar dip; n = amount to dip
 \n  - tremolo bar down
 n/  - tremolo bar up
/n\  - tremolo bar inverted dip
 =   - hold bend; also acts as connecting device for hammers/pulls
 <>  - volume swell (louder/softer)
 x   - on rhythm slash represents muted slash
 o   - on rhythm slash represents single note slash

Misc Legend
-----------
 |  - bar
||  - double bar
||o - repeat start
o|| - repeat end
*|  - double bar (ending)
 :  - bar (freetime)
 $  - Segno
 &  - Coda
Tempo markers -  = BPM(8/16=s8/s16), where s8 = swing 8ths, s16 = swing 16ths


***************************************************************************************
* Generated using Power Tab Editor by Brad Larsen - http://powertab.guitarnetwork.org *
***************************************************************************************
Comments