Slipknot - Pulse Of The Maggots Chords & Tabs

 

Pulse Of The Maggots Chords & Tabs

Slipknot Chords & Tabs

Version: 1 Type: Tab 1 rating
1 star 2 stars 3 stars 4 stars 5 stars
comments

Pulse Of The Maggots Tab


Slipknot's new album (Volume 3:The Subliminal Verses) is one of the greatest
albums ever and this song has a killer riff and even a SOLO from Mick.

Intro Riff:
E---------------------------|--------------------------|----------------------||
B---------------------------|--------------------------|----------------------||
G---------------------------|--------------------------|----------------------||
D---------------------------|--------------------------|----------------------||
A---------------------------|--------------------------|----------------------||
E----------0-----0----------|-----0--1--1--1--1--------|--0----0----0---1/13--||


E---------------------------|--------------------------|------------------------||
B---------------------------|--------------------------|------------------------||
G---------------------------|--------------------------|------------------------||
D---------------------------|--------------------------|------------------------||
A---------------------------|--------------------------|------------------------||
E----------0-----0----------|-----0--1--1--1--1--------|--0----0----0---0/13--12||


E---------------------------|--------------------------|----------------------||
B---------------------------|--------------------------|----------------------||
G---------------------------|--------------------------|----------------------||
D---------------------------|--------------------------|----------------------||
A----------87-----87------|-----87-----87-----87--|-----87----87---8--||
E----------87-----87------|-----87-----87-----87--|-----87----87---8--||


E---------------------------|--------------------------|----------------------||
B---------------------------|--------------------------|----------------------||
G---------------------------|--------------------------|----------------------||
D----------8-----9-----10---|--------------------------|----------------------||
A----------8-----9-----10---|----10--10--9--10--10--10-|-10----11--10--------||
E----------8-----9-----10---|----10--10--9--10--10--10-|-10----11--10--------||


E---------------------------|--------------------------|----------------------||
B---------------------------|--------------------------|----------------------||
G---------------------------|--------------------------|----------------------||
D----------3-----3-----3----|-----4-----3-----1--------|----------------------||
A----------3-----3-----3----|-----4-----3-----1--------|----------------------||
E----------3-----3-----3----|-----4-----3-----1--------|----------------------||

Main Riff:
E---------------------------|--------------------------|----------------------||
B---------------------------|--------------------------|----------------------||
G---------------------------|--------------------------|----------------------||
D---------------------------|--------------------------|----------------------||
A----------0-----0----------|-----0--1--1--1--1--------|--0----0----0---------||
E----------0-----0----------|-----0--1--1--1--1--------|--0----0----0---3/13--||

[ Tab from: http://www.guitartabs.cc/tabs/s/slipknot/pulse_of_the_maggots_tab.html ]
E---------------------------|--------------------------|------------------------||
B---------------------------|--------------------------|------------------------||
G---------------------------|--------------------------|------------------------||
D---------------------------|--------------------------|------------------------||
A----------0-----0----------|-----0--1--1--1--1--------|--0----0----0---0-------||
E----------0-----0----------|-----0--1--1--1--1--------|--0----0----0---0/13--12||


E---------------------------|--------------------------|----------------------||
B---------------------------|--------------------------|----------------------||
G---------------------------|--------------------------|----------------------||
D----------------------6----|-----5-----6-----3----5---|---3---------1---0----||
A----------0-----0-----6----|-----5-----6-----3----5---|---3---------1---0----||
E----------0-----0-----6----|-----5-----6-----3----5---|---3---------1---0----||

Verse Riffs:
E---------------------------|--------------------------|----------------------------------------------||
B---------------------------|--------------------------|----------------------------------------------||
G---------------------------|--------------------------|----------------------------------------------||
D---------------------------|--------------------------|----------------------------------------------||
A----------0-----0----------|-----0--1--1--1--1--------|----------------------------------0--0--0--0--||
E----------0-----0----------|-----0--1--1--1--1--------|--0----0----1---3---4---3--1--0---0--0--0--0--||


E---------------------------|--------------------------|------------------------||
B---------------------------|--------------------------|------------------------||
G---------------------------|--------------------------|------------------------||
D---------------------------|--------------------------|------------------------||
A----------0-----0----------|-----0--1--1--1--1--------|--0----0----0---0-------||
E----------0-----0----------|-----0--1--1--1--1--------|--0----0----0---0/13--12||


Chorus:
E---------------------------|--------------------------|----------------------||
B---------------------------|--------------------------|----------------------||
G---------------------------|--------------------------|----------------------||
D----------------------6----|-----5-----6-----3----5---|---3---------1---0----||
A----------0-----0-----6----|-----5-----6-----3----5---|---3---------1---0----||
E----------0-----0-----6----|-----5-----6-----3----5---|---3---------1---0----||


E---------------------------|--------------------------|------------------------||
B---------------------------|--------------------------|------------------------||
G---------------------------|--------------------------|------------------------||
D---------------------------|--------------------------|------------------------||
A----------0-----0----------|-----0--1--1--1--1--------|--0----0----0---0-------||
E----------0-----0----------|-----0--1--1--1--1--------|--0----0----0---0/13--12||


i'll send in the solo later as i haven't got it with me at the minute.
Comments