Slipknot - Pulse Of The Maggots Chords & Tabs

 

Pulse Of The Maggots Chords & Tabs

Slipknot Chords & Tabs

Version: 1 Type: Bass Tab 0 ratings
1 star 2 stars 3 stars 4 stars 5 stars
comments

Pulse Of The Maggots Bass Tab

   
Band: Slipknot
Song: Pulse of the Maggots
Album: The Subliminal Verses
Tabbed By: Jamie Cushion
~ - Vibrato
/ - Slide
p - Pull off
>>-play until it changes
Tuning: B E A D G  (5 string tuning)

INTRO(order shown below)
VERSE(X4)
CHORUS(x4)
CHORUS END(x1)
VERSE(X4)
CHORUS(X4)
REFRAIN(x4)
DURING THE SOLO(x2)
BRIDGE(x8)
VERSE(x4)
CHORUS(x4)
REFRAIN(x4)
BRIDGE(x8)
   
INTRO
---------------------------------------------------------------------|
---------------------------------------------------------------------|
---------------------------------------------------------------------|
---------------------------------------------------------------------|
-0---0---------------0---1~~~~~~0--0--0--3///////////13~~~~~---------| (x2)

--------------------------------------------------------------------|
--------------------------------------------------------------------|
--------------------------------------------------------------------|
-14p-15-14p-15-14p-15-14p-15-14p-15-14p-15-14p-15--14---3---4---5---|
--------------------------------------------------------------------| (x1)
                                                        
----------------------------------------------------------------------|
----------------------------------------------------------------------|
----------------------------------------------------------------------|
-3-3-3---4-4-4---5-5-5------------------------------------------------|
-------------------------3---3---3---4---3----1-----------------------| (x1)

---------------------------------------------------------------------|
---------------------------------------------------------------------|
---------------------------------------------------------------------|
---------------------------------------------------------------------|
-0---0---------------0---1~~~~~~0--0--0--3///////////13~~~~~---------| (x8)

------------------------------------------------------------|
------------------------------------------------------------|
------------------------------------------------------------|
------------------------------------------------------------|
-6------5-------6---3-----5---3-----0---1---0---------------|(x1)

VERSE
-----------------------------------------------------------------------|
-----------------------------------------------------------------------|
-----------------------------------------------------------------------|
-----------------------------------------------------------------------|
-0---0-----------0---1~~~~~~-0---0-----------0---1---3---4---3---1---0-|

------------------------------------------------------------|
------------------------------------------------------------|
------------------------------------------------------------|
------------------------------------------------------------|
-----0---1~~~~~~0--0--0---3///////////13--------------------|

CHORUS 1
------------------------------------------------------------|
------------------------------------------------------------|
------------------------------------------------------------|
------------------------------------------------------------|
-6------5-------6---3-----5---3-----0---1---0---------------|

CHORUS END
---------------------------------------------------------------------|
---------------------------------------------------------------------|
---------------------------------------------------------------------|
---------------------------------------------------------------------|
-0---0---------------0---1~~~~~~0--0--0--3///////////13~~~~~---------| 

REFRAIN
--------------------------------------------------------------|
---------3-----------2-------3---0-------2---0----------------|
-------------------------------------------------4-4----------|
--------------------------------------------------------------|
--------------------------------------------------------------|
[ Tab from: http://www.guitartabs.cc/tabs/s/slipknot/pulse_of_the_maggots_btab.html ]
DURING THE SOLO
----------------------------------------------------------------------|
----------------------------------------------------------------------|
----------------------------------------------------------------------|
-3/5/3/6-------4---4---4---4---4---4---4---4---4---4---4--------------|
----------------------------------------------------------------------|

------------------------------------------------------------------|
------------------------------------------------------------------|
------------------------------------------------------------------|
-3/5/3/6-------4---4----------------------------------------------|
-----------------------------0-----0---0----1----1--1--1----------|
         
---------------------------------------------------------------------|      
---------------------------------------------------------------------|
---------------------------------------------------------------------|
-3/5/3/6-------4---4---4---4---4---4---4---4---4---4---4-------------|
---------------------------------------------------------------------|

---------------------------------------------------------------------|
---------------------------------------------------------------------|
---------------------------------------------------------------------|
-3/5/3/6-------4---4-------------------------------------------------|
-----------------------------0-----0---0-----3~~~~~~~~~~~~~~~~~~~----|
                  
BRIDGE
---------------------------------------------------------------------------|
---------------------------------------------------------------------------|
---------------------------------------------------------------------------|
---------------------------------------------------------------------------|
-0---1---0---3~~~~~~---0---0---0---0---3~~~~~~-----1-------3-------4-------|

This is the year 
Where hope fails you 
The test subjects run the experiment 
And the bastards you know 
Is the hero you hate 
But cohesing is possible if we try 
There's no reason 
There's no lesson 
No time like the present 
Tell me right now 
What have you got to lose? 
What have you got to lose? 
Except your soul 
Who's with us? 

(verse)
I fight, for the unconventional 
I write, and it's unconditional 
I can only, be as real as I can 
I didn't finish this, I never knew the plan 
This isn't, the way to be a martyr 
I can't, walk alone any longer 
I fight, for the ones who can't fight 
And if I lose then at least I tried 

(chorus)
We, we are the new diabolic 
We, we are the bitter bucolic 
If I have to give my life, you can have it 
We, we are the pulse of the maggots 

(verse)
I won't 
Be the inconsequential 
I won't 
Be the wasted potential 
I can make it 
As severe as I can 
Until you realize you'll never take us down 
It isn't 
Just a one sided vision 
We dealt 
With a man as efficient 
I won't 
Let the truth be perverted 
And now I'll leave another victim deserted 

(chorus)
We, we are the new diabolic 
We, we are the bitter bucolic 
If I have to give my life, you can have it 
We, we are the pulse of the maggots 

(bridge)
Say it again, Say it again 
(One more time) 
Say it again, Say it again 
(We won't die) 
Say it again, Say it again 
(We won't die) 
Say it again, Say it again 
(One more time) 
Say it again, Say it again 
(We won't die) 
Say it again, Say it again 
(We won't die) 

(verse)
We fight 
But no one can fight us 
We live 
And no one can stop us 
We pout 
But we're much too far 
And the advantage is 
The bad alliance 
We never 
Got to decide in the first place 
We only 
Get to spit back in their face 
We won't 
Walk alone any longer 
What doesn't kill us only makes us stronger 

(chorus)
We, we are the new diabolic 
We, we are the bitter bucolic 
If I have to give my life, you can have it 
We, we are the pulse of the maggots 

(bridge)
Say it again, Say it again 
(One more time) 
Say it again, Say it again 
(We won't die) 
Say it again, Say it again 
(We won't die)
Comments