Slipknot - Prosthetics Chords & Tabs

 

Prosthetics Chords & Tabs

Slipknot Chords & Tabs

Version: 4 Type: Tab 0 ratings
1 star 2 stars 3 stars 4 stars 5 stars
comments

Prosthetics Tab

   
Prosthetics-Slipknot
Slipknot

Drop B
B F# B E G# C#

really slow w/ heavy flanger and delay

                                  Fig 1.
e-----------------------------------------------------------------
b-----------------------------------------------------------------
g-----------------------------------------------------------------
d-7-7-6---0-0-7---0-0-7---0-0-7---0-0-6---0-0-7---0-0-7---0-0-7---
a-x-x-x---x-x-x---x-x-x---x-x-x---x-x-x---x-x-x---x-x-x---x-x-x---
d-7-7-6---0-0-7---0-0-7---0-0-7---0-0-6---0-0-7---0-0-7---0-0-7---

Riff A

e-17----17----17----17----17----17----17----17----18----18----18--
b----15----15----15----15----15----15----15----15----15----15-----
g-----------------------------------------------------------------
d-----------------------------------------------------------------
a-----------------------------------------------------------------
d-----------------------------------------------------------------

e-18----18----18----18----18--------------------------------------
b----14----14----14----14----14-----------------------------------
g-----------------------------------------------------------------
d-----------------------------------------------------------------
a-----------------------------------------------------------------
d-----------------------------------------------------------------

e-----------------------------------------------------------------
b-----------------------------------------------------------------
g-----------------------------------------------------------------
d-----------------4---------------------------4-------------------
a------5-----------------------5----------------------------------
d-0----------4----------0---------------4-------------------------

Verse 1  ...even if you run, i will find you......

e-----------------------------------------------------------------
b-----------------------------------------------------------------
g-----------------------------------------------------------------
d-----------------------------------------------------------------
a-5-5-5-5-5-5-5-5-5-5-5-5-5-5-5-5-4-4-4-4-4-4-4-4-4-4-4-4-4-4-4---
d-----------------------------------------------------------------
[ Tab from: http://www.guitartabs.cc/tabs/s/slipknot/prosthetics_tab_ver_4.html ]
e-----------------------------------------------------------------
b-----------------------------------------------------------------
g-----------------------------------------------------------------
d-----------------------------------------------------------------
a---------------------------------4-4-4-4-4-4-4-4-4-4-4-4-4-4-4---
d-0-0-0-0-0-0-0-0-0-0-0-0-0-0-0-0---------------------------------

Pre Chorus:   ...you will be mine......

e-----------------------------------------------------------------
b-----------------------------------------------------------------
g-----------------------------------------------------------------
d-----------------------------------------------------------------
a-0---00-1--0---0-----00-1--0--1-----00-1-0--1---00-1-0---0-------
d-0---00-1--0---0-----00-1--0--1-----00-1-0--1---00-1-0---0-------

e-----------------------------------------------------------------
b-----------------------------------------------------------------
g-----------------------------------------------------------------
d-----------------------------------------------------------------
a-----00-1--0---0-----00-1--0--1-----00-1-0--1---00-1-0---0-------
d-----00-1--0---0-----00-1--0--1-----00-1-0--1---00-1-0---0-------


Chorus:

e-----------------------------------------------------------------
b-----------------------------------------------------------------
g-----------------------------------------------------------------
d-----------------------------------------------------------------
a-8--7--1--2--2/3-3-3-3-3-3-3--8--7--1--2--2/3-3-3-3-3-3-3--------
d-8--7--1--2--2/3-3-3-3-3-3-3--8--7--1--2--2/3-3-3-3-3-3-3--------

Bridge:

gtr 2.

e-----------------------------------------------------------------
B-7878787878787878787878787878787878787878787878787878787878787878
g-----------------------------------------------------------------
d-----------------------------------------------------------------
a-----------------------------------------------------------------
d-----------------------------------------------------------------

gtr 1.

e-----------------------------------------------------------------
b-----------------------------------------------------------------
g-----------------------------------------------------------------
d-----------------------------------------------------------------
a-3-2-0-2-1-0-1-2-3-2-0-2-1-0-1-2-3-2-0-2-0-1-2-3-2-0-2-1-0-1-2---
d-3-2-0-2-1-0-1-2-3-2-0-2-1-0-1-2-3-2-0-2-0-1-2-3-2-0-2-1-0-1-2---

last bar:

e-----------------------------------------------------------------
b-----------------------------------------------------------------
g-----------------------------------------------------------------
d-----------------------------------------------------------------
a-6----6----6----6----6----5----6---------------------------------
d-6----6----6----6----6----5----6---------------------------------

thatís all
too much sampling in this song

trevor jones
timmy91199@yahoo.ca
Comments