Slipknot - Prelude 3 0 Chords & Tabs

 

Prelude 3 0 Chords & Tabs

Slipknot Chords & Tabs

Version: 2 Type: Tab 0 ratings
1 star 2 stars 3 stars 4 stars 5 stars
comments

Prelude 3 0 Tab

   
#----------------------------------PLEASE NOTE---------------------------------#
#This file is the author's own work and represents their interpretation of the #
#song. You may only use this file for private study, scholarship, or research. #
#------------------------------------------------------------------------------##

                                   PRELUDE 3.0
                             As recorded by Slipknot
              (From the 2004 Album VOL. 3 (THE SUBLIMINAL VERSES))

Words and Music by Slipknot
Transcribed by Travis Lausch

Gtr I (B F# B E G# C#) - 'Effects'
Gtr II (B F# B E G# C#) - 'Distorted Guitar'
Gtr III (B F# B E G# C#) - 'Clean guitar'

   Intro
    Q.=80
    N.C.(Am)
   12/8
    Gtr I
     W.               W.               W.               +H.       H.
||-----------------|----------------|----------------|-----------------------||
||o----------------|----------------|----------------|----------------------o||
||-----------------|----------------|----------------|-----------------------||
||-----------------|----------------|----------------|-----------------------||
||o----------------|----------------|----------------|----------------------o||
||--10-------------|-13-------------|-15-------------|-(15)------11pb12r=====||


    F?A                           Ebm/C
    Gtr III
     E  E E E E  E E E  E E E  E    E  E E E E E E E E E E E
||----------7------7------7------|--7------7-----7-----7-----|
||o-------9---9------9------9----|-----9-----9-----9-----9---|
||---7h10-------10-----10-----10-|-------8-----8-----8-----8-|
||-------------------------------|---------------------------|
||o------------------------------|---------------------------|
||-------------------------------|---------------------------|
|
|   Gtr I
|    W.                             W.
||-------------------------------|---------------------------|
||o------------------------------|---------------------------|
||-------------------------------|---------------------------|
||-------------------------------|---------------------------|
||o------------------------------|---------------------------|
||--10---------------------------|-13------------------------|


  Cm/D
   E  E E E E  E E E  E E E  E     E  E  E E E  E  E     E  E E E  E
|------------------------------|-----------------------------------------||
|---------8------8------8------|---8-------8-------8----------8---------o||
|-------8---8------8------8----|------8------8-----------8------8--------||
|--8h10-------10-----10-----10-|--------10-----10----------10-----10-----||
|------------------------------|----------------------------------------o||
|------------------------------|-----------------------------------------||
|
|  W.                             +H.              H.
|------------------------------|-----------------------------------------||
|------------------------------|----------------------------------------o||
|------------------------------|-----------------------------------------||
|------------------------------|-----------------------------------------||
|------------------------------|----------------------------------------o||
|-15---------------------------|-(15)-------------11pb12r================||


   Verses
    $
    F?A                           Ebm/C
     E  E E E E  E E E  E E E  E    E  E E E E E E E E E E E
||----------7------7------7------|--7------7-----7-----7-----|
||o-------9---9------9------9----|-----9-----9-----9-----9---|
||---7h10-------10-----10-----10-|-------8-----8-----8-----8-|
||-------------------------------|---------------------------|
||o------------------------------|---------------------------|
||-------------------------------|---------------------------|
|
|    W.                             W.
||-------------------------------|---------------------------|
||o------------------------------|---------------------------|
||-------------------------------|---------------------------|
||-------------------------------|---------------------------|
||o------------------------------|---------------------------|
||--10---------------------------|-13------------------------|

[ Tab from: http://www.guitartabs.cc/tabs/s/slipknot/prelude_3_0_tab_ver_2.html ]
  Cm/D
   E  E E E E  E E E  E E E  E     E  E  E E E  E  E     E  E E E  E     4x
|------------------------------|-----------------------------------------||
|---------8------8------8------|---8-------8-------8----------8---------o||
|-------8---8------8------8----|------8------8-----------8------8--------||
|--8h10-------10-----10-----10-|--------10-----10----------10-----10-----||
|------------------------------|----------------------------------------o||
|------------------------------|-----------------------------------------||
|
|  W.                             +H.              H.                    4x
|------------------------------|-----------------------------------------||
|------------------------------|----------------------------------------o||
|------------------------------|-----------------------------------------||
|------------------------------|-----------------------------------------||
|------------------------------|----------------------------------------o||
|-15---------------------------|-(15)-------------11pb12r================||


   Chorus
    Eb5   F5                       Bb5         C5
                                                        9/8
    Gtr II
     Q.    Q.    +H.         +Q.    Q   E  Q   E +Q.     +H.         +Q.
||------------------------|----------------------------|-------------------|
||o-----------------------|----------------------------|-------------------|
||---8----10----(10)------|-(10)----3------3---5-(5)---|-(5)---------(5)---|
||---8----10----(10)------|-(10)----3------3---5-(5)---|-(5)---------(5)---|
||o--6-----8-----(8)------|--(8)----1---1--1---3-(3)---|-(3)---------(3)---|
||------------------------|----------------------------|-------------------|
|
|   Gtr I
|    Q.    Q.    +H.         +Q.    Q.     Q.     Q.      Q.    Q.    Q.
||------------------------|----------------------------|-------------------|
||o-------15----(15)------|-(15)---16-----15-----------|-16----15----------|
||--17--------------------|----------------------17----|-------------17----|
||------------------------|----------------------------|-------------------|
||o-----------------------|----------------------------|-------------------|
||------------------------|----------------------------|-------------------|


                                                      1.
                                            To Coda
  Eb5   F5                       Bb5         C5
 12/8                                                 9/8
   Q.    Q.    +H.         +Q.    Q   E  Q   E +Q.     +H.         +Q.
|-----------------------|----------------------------|--------------------||
|-----------------------|----------------------------|-------------------o||
|--8----10----(10)------|-(10)----3------3---5-(5)---|-(5)---------(5)----||
|--8----10----(10)------|-(10)----3------3---5-(5)---|-(5)---------(5)----||
|--6-----8-----(8)------|--(8)----1---1--1---3-(3)---|-(3)---------(3)---o||
|-----------------------|----------------------------|--------------------||
|
|  Q.    Q.    +H.         +Q.    Q.     Q.     Q.      Q.    Q.    Q.
|-----------------------|----------------------------|--------------------||
|-------15----(15)------|-(15)---16-----15-----------|-16----15----------o||
|-17--------------------|----------------------17----|-------------17-----||
|-----------------------|----------------------------|--------------------||
|-----------------------|----------------------------|-------------------o||
|-----------------------|----------------------------|--------------------||


  2.
                            D.S. al Coda
  +H.         +Q.     +H.         +Q.
|-------------------|---------------------||
|-------------------|---------------------||
|-(5)---------(5)---|-(5)---------(5)-----||
|-(5)---------(5)---|-(5)---------(5)-----||
|-(3)---------(3)---|-(3)---------(3)-----||
|-------------------|---------------------||
|
|                                  \3.5
|  Q.    Q.    Q.      Q.    Q.    Q.
|-------------------|---------------------||
|-16----15----------|-16----15------------||
|-------------17----|-------------17------||
|-------------------|---------------------||
|-------------------|---------------------||
|-------------------|---------------------||


   Outro Chorus
    &
    Eb5   F5
   12/8
     Q.    Q.    +H.
||------------------------|
||o-----------------------|
||---8----10----(10)------|
||---8----10----(10)------|
||o--6-----8-----(8)------|
||------------------------|
|
|    Q.    Q.    +H.
||------------------------|
||o-------15----(15)------|
||--17--------------------|
||------------------------|
||o-----------------------|
||------------------------|


         Bb5          C5
                               9/8
   +Q.     Q   E  Q   E +Q.      +H.         +Q.     4x
|-----------------------------|----------------------||
|-----------------------------|---------------------o||
|-(10)-----3------3---5-(5)---|--(5)---------(5)-----||
|-(10)-----3------3---5-(5)---|--(5)---------(5)-----||
|--(8)-----1---1--1---3-(3)---|--(3)---------(3)----o||
|-----------------------------|----------------------||
|
|                 ~~~                   ~~~
|  +Q.     Q.     Q.     Q.       Q.    Q.    Q.     4x
|-----------------------------|----------------------||
|-(15)---/16-----15-----------|-/16----15-----------o||
|-----------------------17\---|--------------17\-----||
|-----------------------------|----------------------||
|-----------------------------|---------------------o||
|-----------------------------|----------------------||


  +H.         +Q.     +H.         +Q.     +H.      +Q.
|-------------------|-------------------|----------------*|
|-------------------|-------------------|----------------*|
|-(5)---------(5)---|-(5)---------(5)---|-(5)------(5)---*|
|-(5)---------(5)---|-(5)---------(5)---|-(5)------(5)---*|
|-(3)---------(3)---|-(3)---------(3)---|-(3)------(3)---*|
|-------------------|-------------------|----------------*|
|
|                                          ~~~
|  Q.    Q.    Q.      Q.    Q.    Q.      H.       Q
|-------------------|-------------------|----------------*|
|-16----15----------|-16----15----------|-15-------------*|
|-------------17----|-------------17----|-17-------------*|
|-------------------|-------------------|-----------x\---*|
|-------------------|-------------------|-----------x\---*|
|-------------------|-------------------|-----------x\---*|



***************************************************************************************
* Generated using Power Tab Editor by Brad Larsen - http://powertab.guitarnetwork.org *
***************************************************************************************
Comments