Slipknot - Ppl Equal Shit Chords & Tabs

 

Ppl Equal Shit Chords & Tabs

Slipknot Chords & Tabs

Version: 1 Type: Tab 0 ratings
1 star 2 stars 3 stars 4 stars 5 stars
comments

Ppl Equal Shit Tab

not confirmed correct but play it and you will stop lookin
drop guitar tune 1 whole step then D-tune it

intro
---------------------------------------------
---------------------------------------------
---------------------------------------------
---------------------------------------------
-----------------------------------0--0--0--0
---6-5-0-0-3-2-0-0-6-5-0-0-3-2-0-0-0--0--0--0
       pm.     pm.     pm.     pm.

2x
----------------------------------
----------------------------------
----------------------------------
----------------------------------
-----------------22223333----2222-
-0000111100001111--------3333-----



------------------------------------
------------------------------------
-99999999999999999/121212121212-----
------------------------------------
-77777777777777777/141414141414-----
------------------------------------

then play part 2 four times before you 
finger slide into this

4x
------------------------------------
------------------------------------
------------------------------------
------------------------------------
------------------------------------
-0-1-0-0-21~~~0-1-0-0-2/5~~~--------
 pm.....      pm.....


 "here we go again mother ******"
 with slightly louder guitar

4x
------------------------------------
------------------------------------
------------------------------------
------------------------------------
-0-1-0-0------0-1-0-0-2-------------
-0-1-0-0-21~~~0-1-0-0-2/5~~~--------
[ Tab from: http://www.guitartabs.cc/tabs/s/slipknot/ppl_equal_shit_tab.html ]
verse
------------------------------------------
------------------------------------------
------------------------------------------
------------------------------------------
------------------------------------------
-2-1--2-1--2-1--1-2----2-1--2-1--2-1--1-5-

bridge
2x
------------------------------------------
------------------------------------------
------------------------------------------
------------------------------------------
-4444444444555555555111111111000000000----
------------------------------------------

  "one more time mother ******"

  play the main riff again

  "every body hates me....."
------------------------------------------
------------------------------------------
------------------------------------------
------------------------------------------
-3-2----5-4----3-2----3-2-----------------
-3-2----5-4----3-2----3-2-----------------

play verse riff here

then play the bridge riff here

coarus
------------------------------------------
------------------------------------------
------------------------------------------
------------------------------------------
-3-0-2-1--4--5---3-0-2-1--4--5------------
-3-0-2-1--4--5---3-0-2-1--4--5------------

then go straight to this, you will have to 
listen to the timing to know when to slide 
down

------------------------------------------
------------------------------------------
------------------------------------------
2.5-2.5-2.5-2.5-2.5-2.5-2.5-2.5-2.5-2.5---
2.5-2.5-2.5-2.5-2.5-2.5-2.5-2.5-2.5-2.5---
2.5-2.5-2.5-2.5-2.5-2.5-2.5-2.5-2.5-2.5---
harmonics.................................

start from 12 what a long finger slide down 

------------------------------------------
------------------------------------------
------------------------------------------
------------------------------------------
-0-0-0-0--1--0-0-0-0--1--0-0-0-0--1-------

then play the chorus riff palm muted for 
the build up, then play it heavy to finish off the song
Comments