Slipknot - People=shit (live) Chords & Tabs

 

People=shit (live) Chords & Tabs

Slipknot Chords & Tabs

Version: 1 Type: Tab 0 ratings
1 star 2 stars 3 stars 4 stars 5 stars
comments

People=shit (live) Tab

   
Slipknot: People=Sh*t (Live)

This was tabbed from the Disasterpieces DVD and Big Day Out 2005 in Sydney

Tuning: B,F#,B,E,G#,C#

~-Bend note
\-Slide Down
/-Slide Up
^-Tremblo Pick
H-Hammer note
PM-Palm Mute

Intro
Riff A
C#-------------------------------------------
G#-------------------------------------------
E--------------------------------------------
B--------------------------------------------
F#-6-5-00-32-00--6-5-00--3-2-00--0-0-0-0-0---
B--6-5-00-32-00--6-5-00--3-2-00--0-0-0-0-0---


Riff B
C#-------------------
G#-------------------
E--------------------
B--------------------
F#-----23-2-----23-2-
B--0101--2--0101--2--


Riff C
Gtr.1
C#--23/----23/----
G#----------------
E-----------------
B-----------------
F#----------------
B-----------------


Riff C
Gtr.2
C#-
G#-11^---14^-
E--X-----12^-
B--8^----11^-
F#-----------
B------------


Riff D
C#-------------------
G#-------------------
E--------------------
B-------------------- X2
F#-----23-2-----23-2-
B--0101--2--0101--2--


Gtr.1
C#------
G#------
E-------
B-------
F#------
B--12\1-

Riff E
Gtr.1
C#------------------------------------------------
G#------------------------------------------------
E-------------------------------------------------
B------------------------------------------------- X2
F#------------------------------------------------
B--0-1-00-1-0--0-1-00-1/5--0-1-00-1-0--0-1-00-1/5-


Gtr.2
On 2nd time
B--0--0--0--0--
F#-0--0--0--0--
B--0--0--0--0--


Riff F
Both Guitars
C#------------------------------------------------
G#------------------------------------------------
E-------------------------------------------------
B------------------------------------------------- X4
F#-0-1-00-1-0--0-1-00-1/5--0-1-00-1-0--0-1-00-1/5-
B--0-1-00-1-0--0-1-00-1/5--0-1-00-1-0--0-1-00-1/5-


Verse 1
Riff G
C#--------------------------
G#--------------------------
E---------------------------
B--------------------------- X4
F#-0-1-00-1-0-3--0-1--3--6-5
B--0-1-00-1-0-3--0-1--3--6-5


Riff H
Gtr.1 (top) Gtr.2 (bottom)
C#--4^---5^------------4^---5^/------------------
G#------------5^---4^----------------------------
E------------------------------------------------
B------------------------------------0H-0H-0H-0H-
F#-----------------------------------0H-0H-0H-0H-
B--7-0-8\-1-1-4-4-7-7-0-8\-1-1-4-4-7-0H-0H-0H-0H-

[ Tab from: http://www.guitartabs.cc/tabs/s/slipknot/peopleshit_live_tab.html ]
Riff I
Gtr.1 & 2
C#------------------------------------------------
G#------------------------------------------------
E-------------------------------------------------
B------------------------------------------------- X2
F#-0-1-00-1-0--0-1-00-1/5--0-1-00-1-0--0-1-00-1/5-
B--0-1-00-1-0--0-1-00-1/5--0-1-00-1-0--0-1-00-1/5-


Riff J
Fast 16ths
C#----------------------------------------------
G#----------------------------------------------
E-----------------------------------------------
B-----------------------------------------------
F#-0321P-3201P-130P-01321-03210P-3201-010P-1/12\
B--0321P-3201P-130P-01321-03210P-3201-010P-1/12\


Verse 2
Riff K
Gtr.1 & 2
C#------------------------------------------------
G#------------------------------------------------
E-------------------------------------------------
B------------------------------------------------- X2
F#-0-1-00-1-0--0-1-00-1/5--0-1-00-1-0--0-1-00-1/5-
B--0-1-00-1-0--0-1-00-1/5--0-1-00-1-0--0-1-00-1/5-


Riff L
Gtr.1 (top) Gtr.2 (bottom)
C#--4^---5^------------4^---5^/------------------
G#------------5^---4^----------------------------
E------------------------------------------------
B------------------------------------0H-0H-0H-0H-
F#-----------------------------------0H-0H-0H-0H-
B--7-0-8\-1-1-4-4-7-7-0-8\-1-1-4-4-7-0H-0H-0H-0H-


Chorus
Riff M
Both Guitars
C#---------------------------
G#---------------------------
E----------------------------
B--7-0-8\-1-4-7-7-0-8\-1-4-7-  X4
F#-7-0-8\-1-4-7-7-0-8\-1-4-7-
B--7-0-8\-1-4-7-7-0-8\-1-4-7-


Drum Fill


Bridge
Riff N
Gtr. 1
C#---------------------------
G#---------------------------
E----------------------------
B-----------------------------
F#-------0-0-0-0-1^-0-0-0-	Gtr 2 joins 2nd time
B--12\\\-0-0-0-0-1^-0-0-0-

 
Riff O
B--------------------------
F#-11-11-11-22-11-11-22-44-   X5
B--11-11-11-22-11-11-22-44-


B--------------------------
F#-1H-1H-1H-1H-1H-1H-2H-4H-
B--1H-1H-1H-1H-1H-1H-2H-4H-


Gtr.1
B------------------------------------------------------
F#-----------------------------------------------------
B--7-0-8\-11-44-7-0-8\-11-44-7-0-8\-11-44-7-0-8\-11-44-


Both Guitars
B--7-0-8\-11-44-7-0-8\-11-44-7-0-8\-11-44-7-0-8\-11-44-
F#-7-0-8\-11-44-7-0-8\-11-44-7-0-8\-11-44-7-0-8\-11-44-
B--7-0-8\-11-44-7-0-8\-11-44-7-0-8\-11-44-7-0-8\-11-44-


Gtr.1
B-------
F#------
B--1/12\

Chorus
Both Guitars
C#---------------------------
G#---------------------------
E----------------------------
B--7-0-8\-1-4-7-7-0-8\-1-4-7-     X8
F#-7-0-8\-1-4-7-7-0-8\-1-4-7-
B--7-0-8\-1-4-7-7-0-8\-1-4-7-

Outro
B--6-5-00-3-2-00-0HP-0HP-0HP-
F#-6-5-00-3-2-00-0HP-0HP-0HP-
B--6-5-00-3-2-00-0HP-0HP-0HP-

End

This a live tabbing so it might vary depending on source.
Comments