Slipknot - People Shit Chords & Tabs

 

People Shit Chords & Tabs

Slipknot Chords & Tabs

Version: 7 Type: Tab 0 ratings
1 star 2 stars 3 stars 4 stars 5 stars
comments

People Shit Tab

   
---------------------------------------------------------------------------
			     People=Shit-Slipknot
---------------------------------------------------------------------------
Tabbed by:
Email:dennismib@yahoo.com.br

Tuning:Drop B:B F# B E G# C#
 couldnt write the tuning 50 times dammit!
| /  slide up
| \  slide down
| h  hammer-on
| p  pull-off
| ~  Let ring
| *  harmonic
| x  Mute note
|PM  Palm Muting
|Tr  Tremolo Picking

e|-------------------------------------------------------------------------|
B|-------------------------------------------------------------------------|
G|-------------------------------------------------------------------------|
D|-------------------------------------------------------------------------|
A|-6p5-00--3p2-00-6p5-00-3p2-00--0000------------------------------------|
E|-6p5-00-3p2-00-6p5-00-3p2-00--0000------------------------------------|
PM     ..      ..      ..      ..   /\In this part,mute these notes right
a                                     after you play them.


You can't wrilly hear anything in the next part but "i think" guitars play a
melody like this:
e|-------------------------------------------------------------------------|
B|-------------------------------------------------------------------------|
G|-------------------------------------------------------------------------|
D|-------------------------------------------------------------------------|
A|------5555-222-333-2222-5555-222-333-2222--------------------------------|
E|-0000--------------------------------------------------------------------|
Tr .... .... ... ... .... .... ... ... ....

Then:(this part actually isnt easy to play without two guitars becuz one of
them only does the 555555555 thing and the other one does the bend)

e|-55555555-16b18-55555555-1111--------------------------------------------|
B|-------------------------------------------------------------------------|
G|-------------------------------------------------------------------------|
D|-------------------------------------------------------------------------|
A|-------------------------------------------------------------------------|
E|-------------------------------------------------------------------------|
Tr ........       ........ ....

Then: play this thingy two times
e|-------------------------------------------------------------------------|
B|-------------------------------------------------------------------------|
G|-------------------------------------------------------------------------|
D|-------------------------------------------------------------------------|
A|------5555-222-333-2222-5555-6666----------------------------------------|
E|-0000--------------------------------------------------------------------|
Tr .... .... ... ... .... .... ....


And:
e|-------------------------------------------------------------------------|
B|-------------------------------------------------------------------------|
G|-------------------------------------------------------------------------|
D|-------------------------------------------------------------------------|
A|-1---13\1----------------------------------------------------------------|
E|-1---13\1----------------------------------------------------------------|

Play this once
e|-------------------------------------------------------------------------|
B|-------------------------------------------------------------------------|
G|-------------------------------------------------------------------------|
D|-------------------------------------------------------------------------|
A|----------------------------------------------13\1-----------------------|
E|-0h1-11-0h1-0h1-1-0-4b5-----0h1-11-0h1-0h1-0-13\1-----------------------|

Then                                     HERE WE GO AGAN MOTHERFUCKER!!!
e|-------------------------------------------------------------------------|
B--------------------------------------------------------------------------|
G|-------------------------------------------------------------------------|
D|-------------------------------------------------------------------------|
A|-----------------------------------------------5555----------------------|
E|-0h1-11-0h1-0h1-1-0-4b5----0h1-11-0h1-0h1-11-0-5555----------------------|

Play this 8 times
e|-------------------------------------------------------------------------|
B|-------------------------------------------------------------------------|
G|-------------------------------------------------------------------------|
D|-------------------------------------------------------------------------|
A|-0-111-0h1-0-111-0-5~(let ring)------------------------------------------|
E|-0-111-0h1-0-111-0-5~(let ring)------------------------------------------|

Play the next part (the verse) in a rhytm picking (i just made that up)
But you know, play it like you were doing a rhytm exercise on the acoustic
guitar becuz if u only pick the chords here it wont give that strange rhytm
thing.By the way, if you think im crazy to tell you to play slipknot on an
acoustic guitar, remember that both Mick and Jim are classical guitar players
and Mick even played Jazz!!!By saying these things i mean that you cant be a
good guitar player without having a classical guitar education.
Thats it.Sorry to hurt your feelings. Now back with da TABZ (with the rhytm thing)

E|-------------------------------------------------------------------------|
B|-------------------------------------------------------------------------|
G|-------------------------------------------------------------------------|
D|-------------------------------------------------------------------------|
A|-11111111-44-3-0---11111111-4-3-6-5--------------------------------------|
D|-11111111-44-3-0---11111111-4-3-6-5--------------------------------------|

Then:(this time, unfortunetaly i have to tab two guitars, sorry)

Guitar 1:two times
E|-10-10-10-10-10-10-10-10-11-11-11-11-11-11-11-11-------------------------|
B|-------------------------------------------------12-12-12-12-11-11-11-11-|
G|-------------------------------------------------------------------------|
D|-------------------------------------------------------------------------|
A|-------------------------------------------------------------------------|
D|-------------------------------------------------------------------------|
Tr ......................  .......................  .......................


Guitar 2:4 times (by the way, thats the chorus riff in one string)
E|-------------------------------------------------------------------------|
B|-------------------------------------------------------------------------|
G|-------------------------------------------------------------------------|
D|-------------------------------------------------------------------------|
A|-------------------------------------------------------------------------|
D|-7-0-8-1-1-4-4-7---------------------------------------------------------|
[ Tab from: http://www.guitartabs.cc/tabs/s/slipknot/people_shit_tab_ver_7.html ]
ONE MORE TME MOTHERFUCKER!!!!
(4 times)
E|-------------------------------------------------------------------------|
B|-------------------------------------------------------------------------|
G|-------------------------------------------------------------------------|
D|-------------------------------------------------------------------------|
A|-0-111-0h1-0-11-0-5~(let ring)-------------------------------------------|
D|-0-111-0h1-0-11-0-5~(let ring)-------------------------------------------|

Everybody hates me now...blah blah blah part
(try following what he says by playing the same rhytm of corey's voice saying
everybody hates me now BLAGH BLAH BLAH with 111 chord)that wrilly helps doenst it?
E|-------------------------------------------------------------------------|
B|-------------------------------------------------------------------------|
G|-------------------------------------------------------------------------|
D|-------------------------------------------------------------------------|
A|-1111111-11-11-1111-1111-3211-1-1-3211-111-------------------------------|
D|-1111111-11-11-1111-1111-3211-1-1-3211-111-------------------------------|

They do slides alot
E|-------------------------------------------------------------------------|
B|-------------------------------------------------------------------------|
G|-------------------------------------------------------------------------|
D|-------------------------------------------------------------------------|
A|-13\1--------------------------------------------------------------------|
D|-13\1--------------------------------------------------------------------|

4 times
E|-------------------------------------------------------------------------|
B|-------------------------------------------------------------------------|
G|-------------------------------------------------------------------------|
D|-------------------------------------------------------------------------|
A|-0-1-2-1--0-1-0-5--------------------------------------------------------|
D|-0-1-2-1--0-1-0-5--------------------------------------------------------|

Now the 2 guitars pre-chorus thingy

E|-10-10-10-10-10-10-10-10-11-11-11-11-11-11-11-11-------------------------|
B|-------------------------------------------------12-12-12-12-11-11-11-11-|
G|-------------------------------------------------------------------------|
D|-------------------------------------------------------------------------|
A|-------------------------------------------------------------------------|
D|-------------------------------------------------------------------------|
Tr ......................  .......................  .......................

Guitar 2:4 times (by the way, thats the chorus riff in one string)
E|-------------------------------------------------------------------------|
B|-------------------------------------------------------------------------|
G|-------------------------------------------------------------------------|
D|-------------------------------------------------------------------------|
A|-------------------------------------------------------------------------|
D|-7-0-8-1-1-4-4-7---------------------------------------------------------|

Chorus: People=SHT blah blah blah
(8 times)
e-----------------------------------------------------------------|
b-----------------------------------------------------------------|
g-----------------------------------------------------------------|
d-----------------------------------------------------------------|
a-7-0-8-1-1/44/7--------------------------------------------------|
d-7-0-8-1-1/44/7--------------------------------------------------|

Sampling sample arranged for guitar (try it becuz it wrilly sounds like
the real thing -BUT- to hear all these harmonics, u need lots of gain)
* means a harmonic read the signs thing on the first page dammit!
e-----------------------------------------------------------------|
b-----------------------------------------------------------------|
g-----------------------------------------------------------------|
d-----------------------------------------------------------------|
a-2*/3*-3*/4*/5*/6*/7*-or just slide slowly from-2*-to-7*--------|
d-2*/3*-3*/4*/5*/6*/7*----------------------------2*----7*--------|


-DRUM SOLO-

Slide again
e-------------------------------------------------------------------|
b-------------------------------------------------------------------|
g-------------------------------------------------------------------|
d-------------------------------------------------------------------|
a-13\1--------------------------------------------------------------|
d-13\1--------------------------------------------------------------|

4 times
e-----------------------------------------------------------------|
b-----------------------------------------------------------------|
g-----------------------------------------------------------------|
d-----------------------------------------------------------------|
a-0-0-0-0-11------------------------------------------------------|
d-0-0-0-0-11------------------------------------------------------|

COME ON!!!! (its corey screaming, not me)
5 times
e-----------------------------------------------------------------|
b-----------------------------------------------------------------|
g-----------------------------------------------------------------|
d-----------------------------------------------------------------|
a-0-1-2-1-0-1-0-2-0-1-2-1-1-2-2-4---------------------------------|
d-0-1-2-1-0-1-0-2-0-1-2-1-1-2-2-4---------------------------------|

try following his voice again while he says 'm not like you
e-----------------------------------------------------------------|
b-----------------------------------------------------------------|
g-----------------------------------------------------------------|
d-----------------------------------------------------------------|
a-1-1-1-1-1-1-1--1-1-1-1-1-1-1-1-1--------------------------------|
d-1-1-1-1-1-1-1--1-1-1-1-1-1-1-1-1--------------------------------|


This time the pre-chorus without the quick thingy
4 times
E-----------------------------------------------------------------|
b-----------------------------------------------------------------|
g-----------------------------------------------------------------|
d-----------------------------------------------------------------|
a-----------------------------------------------------------------|
d-7-0-8-11-44-7---------------------------------------------------|

then palm muted 4 times
e-----------------------------------------------------------------|
b-----------------------------------------------------------------|
g-----------------------------------------------------------------|
d-----------------------------------------------------------------|
a-7-0-8-1-1/44/7--------------------------------------------------|
d-7-0-8-1-1/44/7--------------------------------------------------|
PM. . . . . . . .

Then the same thing without palm muting
8 times
e-----------------------------------------------------------------|
b-----------------------------------------------------------------|
g-----------------------------------------------------------------|
d-7-0-8-1-1/44/7--------------------------------------------------|
a-7-0-8-1-1/44/7--------------------------------------------------|

Ending (the song ends like it started)
e-----------------------------------------------------------------|
b-----------------------------------------------------------------|
g-----------------------------------------------------------------|
d-----------------------------------------------------------------|
a-6p5--00-3p2-006p5-00-3p2-00-0-0-0 let ring forever-------------|
d-6p5--00-3p2-00-6p5-00-3p2-00-0-0-0-let ring forever-------------|
PM     ..     ..     ..     ..
(becuz its the end of the song)
Comments