Slipknot - People Shit Chords & Tabs

 

People Shit Chords & Tabs

Slipknot Chords & Tabs

Version: 3 Type: Tab 0 ratings
1 star 2 stars 3 stars 4 stars 5 stars
comments

People Shit Tab

   
Song: People=shit
Artist: Slipknot
Album: Iowa (2001)
Tabbed by: Christian / silent_warrior_@hotmail.com

I seen this song tabbed wrong alot..so I decided to make a better version..enjoy!

PM - Palm mute notes that have a - under them
h - Hammer-on
p - Pull-off
b - Bend string
/ - Slide up
\ - Slide down
~ - Vibrato
t - Tremolo pick note

Tuning: B F# B E G# C#


Intro - 0:01-0:03
|-------------------------------------|
|-------------------------------------|
|-------------------------------------| x1
|-5p4-----3p2-----5p4-----3p2-0-1-1-1-|
|-5p4-----3p2-----5p4-----3p2-0-1-1-1-|
|-5p4-0-0-3p2-0-0-5p4-0-0-3p2-0-1-1-1-|
PM    - -     - -     - -

0:03-0:07
|-------------------------|
|-------------------------|
|-------------------------| x2
|-------------------------|
|-------------------------|
|-7t-0t-9t-0t-5t-0t-6t-8t-|


0:09
|----6b----|
|----------|
|----------| x1
|----------|
|----------|
|----------|


0:12-0:21
|-------------------------|
|-------------------------|
|-------------------------| x4
|-------------------------|
|-------------------------|
|-7t-0t-9t-0t-5t-0t-6t-8t-|


0:21-0:22
|------|
|------|
|------| x1
|-12\1-|
|-12\1-|
|-12\1-|


0:23-0:30
|--------------------|
|--------------------|
|--------------------| x4
|--------------------|
|--------------------|
|-0-1-0-1~--0-1-0-4~-|


0:31-0:46
|------------------------|
|------------------------|
|------------------------| x4
|------------------------|
|------------------------|
|-0-1-0-0-1~--0-1-0-0-4~-|


Verse - 0:46-1:02
|------------------------------------------|
|------------------------------------------|
|------------------------------------------| x4
|------------------------------------------|
|------------------------------------------|
|-0-1-0-0-1~--0-1-0-0-4~--0-1~--0-4~--0-5~-|


1:02-1:10 (Not sure about this part)
|-5-5-5-5-5-5--7-7-7--6-6-6--5-5-5--7-7-7-7-7-7--9-9-9-9-9-9-|
|------------------------------------------------------------|
|-3-3-3-3-3-3--5-5-5--4-4-4--3-3-3--5-5-5-5-5-5--7-7-7-7-7-7-| x1
|------------------------------------------------------------|
|------------------------------------------------------------|
|------------------------------------------------------------|


1:10-1:18
|----------------------|
|----------------------|
|----------------------| x4
|-0-1-0-0-1--0-1-0-0-4-|
|-0-1-0-0-1--0-1-0-0-4-|
|-0-1-0-0-1--0-1-0-0-4-|

[ Tab from: http://www.guitartabs.cc/tabs/s/slipknot/people_shit_tab_ver_3.html ]
Verse - 1:18-1:24
|---------------------------------------|
|---------------------------------------|
|---------------------------------------| x1
|-1-0--1-0--1-0--1-0--1-0-1-0--1-0--1-0-|
|-1-0--1-0--1-0--1-0--1-0-1-0--1-0--1-0-|
|-1-0--1-0--1-0--1-0--1-0-1-0--1-0--1-0-|


1:25
|-------|
|-------|
|-------| x1
|-------|
|-1/9\1-|
|-1/9\1-|


1:26-1:35
|---------------------------------|
|---------------------------------|
|---------------------------------| x2
|-1h2-1h2-1h2-1h3-1h2-1h2-1h2-1h4-|
|-1h2-1h2-1h2-1h3-1h2-1h2-1h2-1h4-|
|-1h2-1h2-1h2-1h3-1h2-1h2-1h2-1h4-|


1:34-1:41 (Not sure about this part)
|-5-5-5-5-5-5--7-7-7--6-6-6--5-5-5--7-7-7-7-7-7--9-9-9-9-9-9-|
|------------------------------------------------------------|
|-3-3-3-3-3-3--5-5-5--4-4-4--3-3-3--5-5-5-5-5-5--7-7-7-7-7-7-| x1
|------------------------------------------------------------|
|------------------------------------------------------------|
|------------------------------------------------------------|


Chorus - 1:42-1:57
|----------------|
|----------------|
|----------------| x8
|-0-0-7-0--7-8-9-|
|-0-0-7-0--7-8-9-|
|-0-0-7-0--7-8-9-|


Bridge - 2:06-2:13
|-------------------------|
|-------------------------|
|-------------------------| x2
|-0-0-0-0-0-1-0-0-0-0-0-1-|
|-0-0-0-0-0-1-0-0-0-0-0-1-|
|-0-0-0-0-0-1-0-0-0-0-0-1-|


2:13-2:33
|---------------------------------|
|---------------------------------|
|---------------------------------| x5
|-1h2-1h2-1h2-1h3-1h2-1h2-1h2-1h4-|
|-1h2-1h2-1h2-1h3-1h2-1h2-1h2-1h4-|
|-1h2-1h2-1h2-1h3-1h2-1h2-1h2-1h4-|


2:34-2:41
|---------------------------------------------------------|
|---------------------------------------------------------|
|---------------------------------------------------------| x1
|-0-0-0-0-0-0-0-0-0-0-0-0-0-0-0-0--0--0--0--0--0--0--0--0-|
|-0-0-0-0-0-0-0-0-0-0-0-0-0-0-0-0--0--0--0--0--0--0--0--0-|
|-0-0-0-0-0-0-0-0-0-0-0-0-0-0-0-0--0--0--0--0--0--0--0--0-|


2:42-2:49
|-----------------|
|-----------------|
|-----------------| x4
|-----------------|
|-----------------|
|-7-0-9-0-5-0-6-8-|


2:50-2:57
|-----------------|
|-----------------|
|-----------------| x4
|-7-0-9-0-5-0-6-8-|
|-7-0-9-0-5-0-6-8-|
|-7-0-9-0-5-0-6-8-|
PM- - - - - - - -

2:59
|-------|
|-------|
|-------| x1
|-------|
|-1/9\1-|
|-1/9\1-|


Chorus - 3:00-3:31
|----------------|
|----------------|
|----------------| x16
|-0-0-7-0--7-8-9-|
|-0-0-7-0--7-8-9-|
|-0-0-7-0--7-8-9-|


End - 3:31-3:34
|------------------------------------|
|------------------------------------|
|------------------------------------| x1
|-5p4-----3p2-----5p4-----3p2-0-0--0-|
|-5p4-----3p2-----5p4-----3p2-0-0--0-|
|-5p4-0-0-3p2-0-0-5p4-0-0-3p2-0-0--0-|
PM    - -     - -     - -

Thanks to Slipknot for writing this great song.

Comments