Slipknot - People Shit Chords & Tabs

 

People Shit Chords & Tabs

Slipknot Chords & Tabs

Version: 2 Type: Tab 0 ratings
1 star 2 stars 3 stars 4 stars 5 stars
comments

People Shit Tab

   
    SLIPKNOT
    PEOPLE=****   
    TUNING:Drop D and down 1 and 1/2 step
                     (B F# B E G# C#)

  Riff 1
C#|-------------------------------------|
G#|-------------------------------------|
E |-------------------------------------|
B |-3p2--0-6p5--0-3p2--0-6p5--0-3-3-3-3-|
F#|-3p2--0-6p5--0-3p2--0-6p5--0-3-3-3-3-|
B |-3p2--0-6p5--0-3p2--0-6p5--0-3-3-3-3-|
 PM   -  -   -  -   -  -   -    - - - -
 
Riff 2
|-------------------------|
|-------------------------|
|-------------444-5-------|
|-000-1-000-1-444-5-333-2-|
|-000-1-000-1-222-3-333-2-|
|-000-1-000-1-------333-2-|
PM--- - --- - --- - --- -

Riff 3
|------6b-|
|---------|
|-3b------|
|---------|
|---------|
|---------|
[ Tab from: http://www.guitartabs.cc/tabs/s/slipknot/people_shit_tab_ver_2.html ]
Riff 4
|---------------------|
|---------------------|
|---------------------| bend the 4 up 1/2 step
|---------------------|
|---------------------|
|-0-1-0-1br--0-1-0-4b-|

Riff 5
|----------------------|
|----------------------|
|----------------------|
|-0-1-0-0-1--0-1-0-0-5-|
|-0-1-0-0-1--0-1-0-0-5-|
|-0-1-0-0-1--0-1-0-0-5-|

Riff 6
|------------------|
|-3---4------------|
|---------4---3----|
|------------------|
|------------------|
|------------------|

Riff 7
|--------|
|--------|
|--------|
|-1-0--0-|
|-1-0--0-|
|-1-0--0-|
PM- -  -

Riff 8
|-----------------|
|-----------------|
|-----------------|
|-0-1-1---0-1-2---|
|-0-1-1---0-1-2---|
|-0-1-1---0-1-2---|

Riff 9
|------------------|
|------------------|
|------------------|
|-8-0-9-0--0-5-5-7-|
|-8-0-9-0--0-5-5-7-|
|-8-0-9-0--0-5-5-7-|

Riff 10
|-------------|
|-------------|
|-------------|
|-1-1-1-1-1-2-|
|-1-1-1-1-1-2-|
|-1-1-1-1-1-2-|
PM- - - - - -

Riff 11
|------------------|
|------------------|
|------------------|
|------------------|
|------------------|
|-8-0-9-0--0-5-5-7-|
PM- - - -  - - - -
Comments