Slipknot - People Shit Chords & Tabs

 

People Shit Chords & Tabs

Slipknot Chords & Tabs

Version: 1 Type: Tab 0 ratings
1 star 2 stars 3 stars 4 stars 5 stars
comments

People Shit Tab

   
Slipknot
People=Shit

Detune Guitar B F# B E G# C#
                                                                            

Intro                                                                                
E---------------------------|--------------------------|--------------||--------
B---------------------------|--------------------------|--------------||--------
G---------------------------|--------------------------|--7--7--7--7--||--------
D---------------------------|--------------------------|--7--7--7--7--||--------
A---6--5--0--0--3--2--0--0--|--6--5--0--0--3--2--0--0--|--5--5--5--5--||--------
E---6--5--0--0--3--2--0--0--|--6--5--0--0--3--2--0--0--|--0--0--0--0--||--------

Pull off from your second to your first finger for both sets of pull-offs in bars
one and two, using alternate picking.Use down strokes for the chord stabs,damping
the strings by lifting you fingers just off the fretboard for the staccatos                                                                            

Intro Moshing
                                                                                
E---||---------------------------|--------------------------||---------|--------
B---||---------------------------|--------------------------||--11-----|--------
G---||*--------------------------|--------------------------||--9-~~~--|--------
D---||*--------------------------|--------------------------||---------|--------
A---||---------------------------|--2--2--3--3--------2--2--||---------|--------
E---||---1--2--1--0--3--6--1--0--|--------------3--3--------||---------|--------
                                                                                
Start the repeat section in the first position, then move to the third position
for the beat three of bar one, before moving swiftly back to play the rest of 
 the riff in the first position, using your second finger to fret the B. Use 
Alternate picking throughout
                                                                                
E--------------------|----------------------------------------------------------
B------14--------12--|-----14---------------------------------------------------
G------12--------9---|-----12---------------------------------------------------
D--------------------|-----11---------------------------------------------------
A--------------------|----------------------------------------------------------
E--------------------|----------------------------------------------------------
                                                                                

        PM                                                   4x                 
E---||-------------------------------------------------------||-----------------
B---||-------------------------------------------------------||-----------------
G---||*-----------------------------------------------------*||-----------------
D---||*-----------------------------------------------------*||-----------------
A---||------------------------------2--2--3--3--------2--2---||-----------------
E---||---1--2--1--0--3--6--1--0-----------------3--3---------||-----------------
                                                                                

                                                                                
E------------------------------------|-----||-----------------------------------
B------------------------------------|-----||-----------------------------------
G------------------------------------|-----||-----------------------------------
D------------------------------------|-----||-----------------------------------
A------------------------------------|-----||-----------------------------------
E---0--------------------------------|--17\||-----------------------------------

BridgeRiff

                                                  12x                           
E-------------------------------------------------||----------------------------
B-------------------------------------------------||----------------------------
G------------------------------------------------*||----------------------------
D------------------------------------------------*||----------------------------
A-------------------------------------------------||----------------------------
E------0--1--2--0--0--1--------0--2--1--0--0--5---||----------------------------

Us alternate picking throughout this bar riff, playing it almost entirly in the first
position, but reach up to the G at the fifth fret with your thord finger. Aim for a 
strong vibrato on the substain notes.
                                                                            

Verse Riff

                                                                                
E---||---------------------------------------------|----------------------------
B---||---------------------------------------------|----------------------------
G---||*--------------------------------------------|----------------------------
D---||*--------------------------------------------|----------------------------
A---||---------------------------------------------|----------------------------
E---||---0--2--1--0--0--1--0--6--4--4--3-----0--2--|----------------------------
                                                                                

                                                  4x                            
E-------------------------------------------------||----------------------------
B-------------------------------------------------||----------------------------
G------------------------------------------------*||----------------------------
D------------------------------------------------*||----------------------------
A-------------------------------------------------||----------------------------
E---0--1-----0--6--4--3-----0--3--0--6--6--5--5---||----------------------------
                                                                            
This riff starts exactly as the bridge riff, but them becomes syncopated which is 
very tricky at this tempo, so take it very much slowly first and speed up when
you have mastered it. Ideally use your fourth finger to fret the A at the sixth fret.


Build Up Bridge Riff 2

                                                                                
E------10--------|--11----------------|-----10--------|-----11------------------
B----------------|---------12-----11--|---------------|-------------------------
G------7---------|--8-----------------|-----7---------|-----8-------------------
D----------------|---------9------8---|---------------|-------------------------
A----------------|--------------------|---------------|-------------------------
E----------------|--------------------|---------------|-------------------------
                                                                                
[ Tab from: http://www.guitartabs.cc/tabs/s/slipknot/people_shit_tab.html ]
                                                                              
E---||-----------------------------------------||-------------------------------
B---||-----------------------------------------||-------------------------------
G---||*---------------------------------------*||-------------------------------
D---||*---------------------------------------*||-------------------------------
A---||---0--2-----1-0--0--1--0--2--1-0--0--5---||-------------------------------
E---||---0--2-----1p0--0--1--0--2--1p0--0--5---||-------------------------------
                                                                            
Fret this octave melody with your first and fourth finger,being sure to damp the strings
between the octave with your first finger. The Riff is the same as the first bridge riff
but using power chords, which can be fretted using the same fingering.
One Finger per chord.


Chorus

                                                    10x                        
E----------------------------------------------------||-------------------------
B------10-----------11--------------------7-----10---||-------------------------
G------9------------10--------------------6-----9---*||-------------------------
D------7------0-----8------3-----4--------4-----7---*||-------------------------
A------7------0-----8------3-----4--------4-----7----||-------------------------
E------7------0-----8------3-----4--------4-----7----||-------------------------
                                                                            
Alternate Pickig through out


Middle Section

                             3x                                                 
E----------------------------||--------------------------------||---------------
B----------------------------||--------------------------------||---------------
G---------------------------*||--------------------------------||---------------
D---------------------------*||--------------------------------||---------------
A------0--0--0--0--1--1--1---||-----0--0--0--0-----4--4--1--1--||---------------
E------0--0--0--0--1--1--1---||-----0--0--0--0-----4--4--1--1--||---------------
                                                                                

                                                                                
E------------------------------------|------------------------------------------
B------------------------------------|------------------------------------------
G------------------------------------|------------------------------------------
D------------------------------------|------------------------------------------
A---1--1-----1--1-----1--1-----2--2--|------------------------------------------
E---1--1-----1--1-----1--1-----2--2--|------------------------------------------
                                                                                

                                               5x                               
E----------------------------------------------||-------------------------------
B----------------------------------------------||-------------------------------
G---------------------------------------------*||-------------------------------
D---------------------------------------------*||-------------------------------
A---1--1-----1--1-----------2--2--------4--4---||-------------------------------
E---1--1-----1--1-----------2--2--------4--4---||-------------------------------
                                                                                

                                                                                
E------------------------------------|------------------------------------------
B------------------------------------|------------------------------------------
G------------------------------------|------------------------------------------
D------------------------------------|------------------------------------------
A---1--1-----1--1-----1--1-----2--2--|------------------------------------------
E---1--1-----1--1-----1--1-----2--2--|------------------------------------------
                                                                                

                                               5x                               
E----------------------------------------------||-------------------------------
B----------------------------------------------||-------------------------------
G---------------------------------------------*||-------------------------------
D---------------------------------------------*||-------------------------------
A---1--1-----1--1-----------2--2--------4--4---||-------------------------------
E---1--1-----1--1-----------2--2--------4--4---||-------------------------------
                                                                                

                                4x                                              
E-------------------------------||-----------------------------||---------------
B-------------------------------||-----------------------------||---------------
G------------------------------*||-----------------------------||---------------
D------------------------------*||-----------------------------||---------------
A-------------------------------||-----------------------------||---------------
E------7--0--8--1--1--4--4--7---||-----7--0--8--1--1--4--4--7--||---------------
                                                                                

    PM                           PM                                                 
E---------------------------||--------------------------------------------------
B---------------------------||--------------------------------------------------
G---------------------------||--------------------------------------------------
D---------------------------||--------------------------------------------------
A---------------------------||--------------------------------------------------
E---7--0--8--1--1--4--4--7--||--0-----------------------------------------------

Take the tricky syncopations of the first repeat bar slowly first and build up speed
Alternate picking the chords stabs of the second repeat section, using one finger
per chord. The riff build up at the end is a simplified version of the chorus riff


Chord Stabb Ending

                                                                                
E----------------------------------------------------------------------|--------
B----------------------------------------------------------------------|--------
G----------------------------------------------------------------------|--------
D----------------------------------------------------------------------|--------
A----5--------------3-2-----------------4-5--------------3-2-----------|--------
E---p5-----0--0-----3p2-----0--0--------4p5-----0--0-----3p2-----0--0--|--------
                                                                                

                                                                                
E---------------||--------------------------------------------------------------
B---------------||--------------------------------------------------------------
G---------------||--------------------------------------------------------------
D---------------||--------------------------------------------------------------
A---0--0-----0--||--------------------------------------------------------------
E---0--0-----0--||--------------------------------------------------------------
                                                                            

Pull off from the second to your first finger for both sets of pull-offs in bars one and two,
using alternate picking. Use down strokes fro the final chord stabbs

And thats it have fun!!                                                                            






                                                                            

Comments