Slipknot - People Shit Chords & Tabs

 

People Shit Chords & Tabs

Slipknot Chords & Tabs

Version: 2 Type: Bass Tab 0 ratings
1 star 2 stars 3 stars 4 stars 5 stars
comments

People Shit Bass Tab

#----------------------------------PLEASE NOTE----------------------------------#
# This file is the author's own work and represents their interpretation of the #
# song. You may only use this file for private study, scholarship, or research. #
#-------------------------------------------------------------------------------#

Slipknot

People = Shit

Tabbed By Davide Castagnone


Intro And Outro
E |--------------------------------------------|
B |--------------------------------------------|
F#|--------------------------------------------|
B |-6-5-0-0-3-2-0-0-6-5-0-0-3-2-0-0-1-1-1-1----|

E |--------------------------------------------|
B |--------------------------------------------|
F#|---------2-3---2----------------------------|
B |-0-1-0-1-----2------------------------------|


come On
E |--------------------------------------------|
B |--------------------------------------------|
F#|--------------------------------------------|
B |-0-1-1-0-1---0-1-1-0-5----------------------|

Verse
[ Tab from: http://www.guitartabs.cc/tabs/s/slipknot/people_shit_btab_ver_2.html ]
E |--------------------------------------------|
B |--------------------------------------------|
F#|--------------------------------------------|
B |--0-1-1-0-1---0-1-1-0-5---0-1-1-0----6-5----|


Interlude 1 min and 18 sec
E |--------------------------------------------|
B |--------------------------------------------|
F#|--------------------------------------------|
B |-0-0-1-1-0-0-1-1-0-0-1-1-0-0-1-1-0-0-1-1----|


Interlude 1 min and 26 sec
E |--------------------------------------------|
B |--------------------------------------------|
F#|--------------------------------------------|
B |-0-0-0-0-1-1-1-1-x--0-0-0-0-5-5-5-5---------|

Chorus
E |--------------------------------------------|
B |--------------------------------------------|
F#|--------------------------------------------|
B |--0-0-7-0-0-7-8-9---------------------------|


Interlude 2 min and 5 sec
E |--------------------------------------------|
B |--------------------------------------------|
F#|--------------------------------------------|
B |-0-0-0-0-0-0-0-0-0-0-0-0-0-0-0-0-0-0-0-0-0--|


Interlude 2 min 13 sec
E |--------------------------------------------|
B |--------------------------------------------|
F#|--------------------------------------------|
B |-0-0-0-1-x4 0-0-0-0-5-----------------------|
Comments