Slipknot - People Are Shit Chords & Tabs

 

People Are Shit Chords & Tabs

Slipknot Chords & Tabs

Version: 4 Type: Tab 0 ratings
1 star 2 stars 3 stars 4 stars 5 stars
comments

People Are Shit Tab

slipknot
people=shit
Iowa

       2x
   |-------------------| |--------------|
   |-------------------| |--------------|
   |-------------------| |--------------|
   |-------------------| |--------------|
   |--6-5-------3-2----| |--0--0--0--0--|
   |--6-5--0-0--3-2----| |--0--0--0--0--|

[ Tab from: http://www.guitartabs.cc/tabs/s/slipknot/people_are_shit_tab_ver_4.html ]
     Rapid picking (listen to cd for rythem and timeing)
    2x
   |---------------| |---------------|
   |---------------| |---------------|
   |---------------| |---------------|
   |---------------| |---------------|
   |---------------| |-2---3-----2---|
   |--0---1--0---1-| |--------3------|


|------------------------|repeat lots of time 
|------------------------|
|------------------------|
|------------------------|
|------------------------|
|-0-1-1-0-0-1---0-1-1-0-5|

cours
|------------------|
|------------------| play a few time then that part is plam muted 
|------------------|i think thats it any question comments or whatever 
|------------------|email me at spudvayne182@hotmail.com
|--7-0-8-1-1-4-7---|
|--7-0-8-1-1-4-7---|
Comments