Slipknot - People Are Shit Chords & Tabs

 

People Are Shit Chords & Tabs

Slipknot Chords & Tabs

Version: 2 Type: Tab 1 rating
1 star 2 stars 3 stars 4 stars 5 stars
comments

People Are Shit Tab

Slipknot
People=Shit
By Matt Flicker

This isnt a full TAB it is just a few of the riffs Ive found out. 
If someone knows the rest of the song please post it on here.

tune down 1 1/2 steps and drop D


Riff 2

-------------------------
-------------------------
-------------------------
1-1-1-1-2----1-1-1-1-4---     (Repeat)
1-1-1-1-2----1-1-1-1-4---
1-1-1-1-2----1-1-1-1-4---
       (bend)       (bend)


Riff 4
[ Tab from: http://www.guitartabs.cc/tabs/s/slipknot/people_are_shit_tab_ver_2.html ]
--------------
--------------
--------------
7--7--8--1---4        (Repeat)
7--7--8--1---4
7--7--8--1---4



Riff 5

-------------------------------------------
-------------------------------------------
-------------------------------------------
1-1--1-1--1-1--2-2--1-1--1-1--1-1--2-2--4-4     (Repeat)
1-1--1-1--1-1--2-2--1-1--1-1--1-1--2-2--4-4
1-1--1-1--1-1--2-2--1-1--1-1--1-1--2-2--4-4

For any comments, Improvements or wat ever Matt_Flicker@Hotmail.com
Comments