Slipknot - People Are Shit Chords & Tabs

 

People Are Shit Chords & Tabs

Slipknot Chords & Tabs

Version: 1 Type: Tab 1 rating
1 star 2 stars 3 stars 4 stars 5 stars
comments

People Are Shit Tab

   
Artist: Slipknot
Song:People=shit
Album: Iowa
Track:2
Name of tabber: Jacob
E-mail: spikexxlethal@aol.com

	drop D runing; down 1 and a half steps.
1-C#  4-B
2-G#  5-F#
3-E   6-B
  KEYS-
^v = vibrate the note shown
 p = pull off
b1/2= bend 1 half step
/ = slide up 
N.H= natrual harmonic
pm....= palm mute

 This song is fairly easy to play and this is my 2nd tab so hopefully you'll like it. I broke it down for 2 
guitars.
   both guitars
3|-----------------------------------------
4|-4p0-0-0-1p0-0-0-1p0-0-0-1p0-0-0-1-1-1-1-
5|-4P0-0-0-1P0-0-0-1P0-0-0-1P0-0-0-1-1-1-1-
6|-4P0-0-0-1P0-0-0-1P0-0-0-1P0-0-0-1-1-1-1-
pm     - -     - -     - -     - - - - - - 
  guitar 1
5|----------------------------------------
6|0000-44-11-7777-3333-6666--------------- < tremelo pick these notes. isten to the cd
  
  guitar 2
3|-33333333-------- < keep tremelo picking this note
  
  guitar 1
1|--15b1/2------------ listen to the timing in the cd and when the 2nd guitar plays that part
                       find the right time needed to play this.
  both guitars
5|----------------------------
6|0000-44-11-7777-333-6666---- < tremelo pick. play this 2 times then
                                 play the same thing but palm mute and dont tremelo pick

  guitar 1
5|---------------------------
6|-0-0-0-0-1--0-0-0-0-4------
           ^v   ^v
  2nd guitar after the 1st one played 2 times
5|-----------------------------
6|-8/-0-0-0-0-1--0-0-0-0-4-----

HERE WE GO MOTHERFUCKER!!!
  both
3|------------------------------
4|-0-1-0-0-1--0-1-0-0-4---------
5|-0-1-0-0-1--0-1-0-0-4---------
6|-0-1-0-0-1--0-1-0-0-4---------
[ Tab from: http://www.guitartabs.cc/tabs/s/slipknot/people_are_shit_tab.html ]
COME ON DOWN AND FEEL THE IDIOT RIGHT HERE
  both
4|-0-1-0-0-1-------------------------------
5|-0-1-0-0-1-------------------------------
6|-0-1-0-0-1--0-0-2--0-0-1--0-0-2--0-0--5-4
                ^v     ^v     ^v
  1st guitar
3|-15-15-15--16-16-16---------------------
4|--x--x--x---x--x--x--16-16-16--15-15-15-  
5|-13-13-13--14-14-14---x--x--x---x--x--x-  < tremelo pick all of this
6|---------------------16-16-16--15-15-15-

  EVERYBODY HATES ME NOW
  both
4|-0000------
5|-0000------  listen to the cd to find out when to play it
6|-0000------

  Chorus (people equal shit)
  1st guitar         2nd guitar
3|-7---8-----------  3|-7---------------
4|-x---x----0-0-2-3  4|-x-0-6-0--0-0-2-3
5|-5-0-6-0--0-0-2-3  5|-5-0-6-0--0-0-2-3
6|---0---0--0-0-2-3  6|---0-6-0--0-0-2-3

Im not sure if the dj or the guitar plays the next part but
i have found a way to play it on guitar

N.H...............................
6|-3-3-3-3-3-3-3-3-3-3-3-3-3-3-3-3 < FOR THIS YOU MUST USE SOME HEAVY FLANGER OR THE "JET" EFFECT
  
   1st guitar 4 x                 2nd guitar joins in. 2 x
2|-----15--16--15--16-15-16   2|-----3--4--3--4-3-4
3|-----14--15--14--15-14-15   3|-----2--3--2--3-2-3
4|-----12--13--12--13-12-13   4|-----0--1--0--1-0-1
5|-------------------------   5|-------------------
6|-16/---------------------   6|-12/---------------

COME ON!!
both
4|--0-0--0-0--0-0--1-1--0-0--1-1--0-0--3-3
5|--0-0--0-0--0-0--1-1--0-0--1-1--0-0--3-3
6|--0-0--0-0--0-0--1-1--0-0--1-1--0-0--3-3

IM-NOT-LIKE-U-I-JUST-FUCK-UP
1st guitar
2|-3--3--3--3--3--3--3--3--
3|-2--2--2--2--2--2--2--2--
4|-0--0--0--0--0--0--0--0--
5|-0--0--0--0--0--0--0--0--
6|-0--0--0--0--0--0--0--0--

guitar 1
5|--------------------------
6|-6p0-10p0--0-0-2p3-------------

both guitars
3|-------------------------------
4|-------------------------------
5|--6-0--8-0--0-0-3-2------------
6|--6-0--8-0--0-0-3-2------------
pm.................................

AFTER THIS JUST REPEAT THE CHORUS RIFF AND VOLA! YOURE DONE. YAY!! IT TOOK ME A LONG TIME TO WRITE THIS BUT I DID IT.
HOPEFULLY I DIDNT DO IT FOR NOTHING. HOPE YOU ALL LIKE IT. IF U HAVE ANY QUESTIONS OR COMMENTS PLEASE E MAIL ME.


Comments