Slipknot - Opium Of The People Chords & Tabs

 

Opium Of The People Chords & Tabs

Slipknot Chords & Tabs

Version: 4 Type: Tab 0 ratings
1 star 2 stars 3 stars 4 stars 5 stars
comments

Opium Of The People Tab

You know it all, tuning and all... slipknot tune with 3 semitones down and the bigger string 5 semitones


  |--13h14-13h14-13h14----13h14-13h14------------|
  |----------------------------------------------|
  |----------------------------------------------|
  |----------------------------------------------|
  |---------------------0--------------0--0------|  x2
  |---------------------0--------------0--0------|
  |---------------------0--------------0--0------| 
pm                      .              .  .
i didn't put the start cuz i think is stupid is just like 0-0-0-... well do it by your self

  |--13h14h13h14h13h14h13h14h13h14---------------|
  |----------------------------------------------|
  |----------------------------------------------|
  |----------------------------------------------|
  |----------------------------------------------|
  |----------------------------------------------|
  |----------------------------------------------| 
[ Tab from: http://www.guitartabs.cc/tabs/s/slipknot/opium_of_the_people_tab_ver_4.html ]
  This one is all with tremolo pick
  |-----------13-15-16-15-16-13------------------|
  |--13-15-16-------------------16-15-13---------|
  |----------------------------------------------|
  |----------------------------------------------|
  |----------------------------------------------|
  |----------------------------------------------|
  |----------------------------------------------| 


  |----------------------------------------------|
  |----------------------------------------------|
  |----------------------------------------------| 
  |----------------------------------------------|  
  |-0---3-1-0-1--(0-0-0---3-1-0-1)\--------------|
  |-0---3-1-0-1--(0-0-0---3-1-0-1) )>x2 ---------|
  |-0---3-1-0-1--(0-0-0---3-1-0-1)/--------------| 
Pm                . .  

  |----------------------------------------------|
  |----------------------------------------------|
  |----------------------------------------------|
  |----------------------------------------------|
  |-0-0-0--3-1-0-3-5-6-6~---3-1-0-1-1-1----------|
  |-0-0-0--3-1-0-3-5-6-6~---3-1-0-1-1-1----------| then repeat first 1 time
  |-0-0-0--3-1-0-3-5-6-6~---3-1-0-1-1-1----------|
Pm  . .


Verses:


  |----------------------------|
  |----------------------------|
  |----------------------------|
  |--7---2---------3-----------|
  |-----------3----------------|
  |----------------------------|
  |----------------------------| 
Tp \
     ----> Whole time
Pm /


Isnt the whole song but its enough to get fun hehe, and anyway im tired xD
Comments