Slipknot - Opium Of The People Chords & Tabs

 

Opium Of The People Chords & Tabs

Slipknot Chords & Tabs

Version: 3 Type: Tab 0 ratings
1 star 2 stars 3 stars 4 stars 5 stars
comments

Opium Of The People Tab

Tabbed by: Andrew Parmeter, andrex@rogers.com

This is my favourite intro to any song, but I need to show you guys how they actually
play it, I've read the other 2 intro's and it seemed a little confusing since they
didn't differetiate between the 2 guitarists.

h\- Pinched Harmonic Slide down   h/- Pinched Harmonic Slide up
* - With previous 'together' bar
(Slide down e.g.: 0 -> higher note = 0\(higher note))

Tuning: C# --------------
        G# --------------
        E  --------------
        B  --------------
        F# -------------- 
        B  --------------

Intro:

Gtr. 1 (Mick) Together (alternate) 

 |-------------------------------------------------------|
 |-------------------------------------------------------|
 |-------------------------------------------------------|
 |-------------------------------------------------------|
 |-------------------------------------------------------|
 |-0-------------0---------0-0-------------0---------0-0-|

Gtr. 2 (James) * (alternate)

 |--------------------------------------------------|
 |---15h\17-15h\17-15h\17---16h\18-16h\18-16\18-----
  15h\17-15h\17-15h\17---16h\18-16h\18--------------|
 |--------------------------------------------------|
 |--------------------------------------------------|
 |--------------------------------------------------|
 |--------------------------------------------------|

Gtr. 1 (Mick) together
[ Tab from: http://www.guitartabs.cc/tabs/s/slipknot/opium_of_the_people_tab_ver_3.html ]
 |-------------------------|
 |-------------------------|
 |-------------------------|
 |-13h\14-13h\15-13h\15----|
 |-------------------------|
 |-------------------------|

Gtr.2 (James) *

 |----------------------------------------------|
 |-15h\17-15h\17-15h\17----13\\18-18//11-11\\16-|
 |----------------------------------------------|
 |----------------------------------------------|
 |----------------------------------------------|
 |----------------------------------------------|

Gtr. 1 (Mick) - Solo

 |-------------------------------------|
 |-------------------------------------|
 |-------------------------------------|
 |-------------------------------------|
 |-------------------------------------|
 |-0-1-3-1-3/0-0-1-2-1-3/0-0-1-3-1-2-0-| x2

Gtr. 1 (Mick) Together
 
 |------------------------------------|
 |------------------------------------|
 |-10---------------------------------|
 |-13h\14-13h\15-13h\15-13h\15-13h\15-|
 |------------------------------------|
 |------------------------------------|

Gtr. 2 (James) *

 |-13---------------------------------|
 |-14h\16-14h\16-14h\16-14h\16-14h\16-|
 |------------------------------------|
 |------------------------------------|
 |------------------------------------|
 |------------------------------------|

Gtr. 1 (Mick) Together

 |------------------------|
 |------------------------|
 |-----------------17//11-|
 |----------16//11--------|
 |-17//11-----------------|
 |------------------------|

Gtr. 2 (James) *

 |------------------17//13-|
 |----------17//12---------|
 |-18//12------------------|
 |-------------------------|
 |-------------------------|
 |-------------------------|

After this there is another solo with Mick sort of like the first.
Comments