Slipknot - Opium Of The People Chords & Tabs

 

Opium Of The People Chords & Tabs

Slipknot Chords & Tabs

Version: 2 Type: Tab 0 ratings
1 star 2 stars 3 stars 4 stars 5 stars
comments

Opium Of The People Tab

Band: Slipknot
Song: Opium of the people
Tabbed by: gary666

intro
|----------------------------------------------------------------------|
|----12h15-12h15 12h15--12h15-12h15-----12h15-12h15-12h15--12h15-12h15-|
|----------------------------------------------------------------------|
|----------------------------------------------------------------------|
|----------------------------------------------------------------------|
|-\0-------------------0------------0-0------------------0-------------|

|---------------------------------|------------------------------------------|
|----12h15-12h15 12h15-12h15-12h15|------------12h15-12h15-19p17-18h16-17p15-|
|---------------------------------|-12h15-12h15------------------------------|
|---------------------------------|------------------------------------------|
|---------------------------------|------------------------------------------|
|-00------------------------------|------------------------------------------|

|----------------------------------------------------------------------|
|----------------------------------------------------------------------|
|----------------------------------------------------------------------|
|-0-1-2-1-0-0--1-2-1-0-0--0-1-2-1-0-0--1-2-1-0-0-----------------------|
|-0-1-2-1-0-0--1-2-1-0-0--0-1-2-1-0-0--1-2-1-0-0-----------------------|
|-0-1-2-1-0-0--1-2-1-0-0--0-1-2-1-0-0--1-2-1-0-0-----------------------|

|--------------------------------|--------------------------------------|
|--12h15-12h15 12h15-12h15-12h15-|-19p17-19p17-17h15-17p15-16p14-16p13--|
|--------------------------------|--------------------------------------|
|--------------------------------|--------------------------------------|
|--------------------------------|--------------------------------------|
|--------------------------------|--------------------------------------|

interlude

|----------------------------------------------|
|----------------------------------------------|
|----------------------------------------------|
|-0--3-1/-00--3-1/-00--3-1/-00--3-1------------|
|-0--3-1/-00--3-1/-00--3-1/-00--3-1------------|
|-0--3-1/-00--3-1/-00--3-1/-00--3-1-4-5-6-7b---|
          .        .        .

verse

|----------------------------------|
|----------------------------------|
|----------------------------------|
|----------------------------------|
|----------------------------------|
|-3-3-3-3-7-7-7-7-0-0-0-0-8-8-8-8--|
  . . . . . . . . . . . . . . . .

|----------------------------------------------|
|----------------------------------------------|
|----------------------------------------------|
|-0--3-1/-00--3-1/-00--3-1/-00--3-1------------|
|-0--3-1/-00--3-1/-00--3-1/-00--3-1------------|
|-0--3-1/-00--3-1/-00--3-1/-00--3-1-4-5-6-7b---|

|----------------------------------|
|----------------------------------|
|----------------------------------|
|----------------------------------|
|----------------------------------|
|-3-3-3-3-7-7-7-7-0-0-0-0-8-8-8-8--|
  . . . . . . . . . . . . . . . .

|----------------------------------|
|----------------------------------|
|----------------------------------|
|-3-3-3-3-7-7-7-7-0-0-0-0-8-8-8-8--|
|-3-3-3-3-7-7-7-7-0-0-0-0-8-8-8-8--|
|-3-3-3-3-7-7-7-7-0-0-0-0-8-8-8-8--|

chorus
[ Tab from: http://www.guitartabs.cc/tabs/s/slipknot/opium_of_the_people_tab_ver_2.html ]
|------------------------------------------------------------------|
|---------------12b--7b--9b--6b--------------------12b-14b-15b-17b-|
|------------------------------------------------------------------|
|-7--1--000-333---------------------7--1--000-333------------------|
|-7--1--000-333---------------------7--1--000-333------------------|
|-7--1--000-333---------------------7--1--000-333------------------|

interlude 2

|--------------------------------|--------------------------------------|
|--12h15-12h15 12h15-12h15-12h15-|-19p17-19p17-17h15-17p15-16p14-16p13--|
|--------------------------------|--------------------------------------|
|--------------------------------|--------------------------------------|
|--------------------------------|--------------------------------------|
|--------------------------------|--------------------------------------|

|--------------------------------|--------------------------------------|
|--------------------------------|--------------------------------------|
|--12h15-12h15 12h15-12h15-12h15-|-19p17-19p17-17h15-17p15-16p14-16p13--|
|--------------------------------|--------------------------------------|
|--------------------------------|--------------------------------------|
|--------------------------------|--------------------------------------|

|--------------------------------|--------------------------------------|
|--12h15-12h15 12h15-12h15-12h15-|-19p17-19p17-17h15-17p15-16p14-16p13--|
|--------------------------------|--------------------------------------|
|--------------------------------|--------------------------------------|
|--------------------------------|--------------------------------------|
|--------------------------------|--------------------------------------|

|--------------------------------|--------------------------------------|
|--------------------------------|--------------------------------------|
|--12h15-12h15 12h15-12h15-12h15-|-19p17-19p17-17h15-17p15-16p14-16p13--|
|--------------------------------|--------------------------------------|
|--------------------------------|--------------------------------------|
|--------------------------------|--------------------------------------|

end riff

|----------------------------------|
|----------------------------------|
|----------------------------------|
|-0-1-0-00-1-0-0-1-0-00-1-0-0------|
|-0-1-0-00-1-0-0-1-0-00-1-0-0------|
|-0-1-0-00-1-0-0-1-0-00-1-0-0------|

|------------------------------------------------------------------|
|---------------12b--7b--9b--6b--------------------12b-14b-15b-17b-|
|------------------------------------------------------------------|
|-7--1--000-333---------------------7--1--000-333------------------|
|-7--1--000-333---------------------7--1--000-333------------------|
|-7--1--000-333---------------------7--1--000-333------------------|

|----------------------------------|
|----------------------------------|
|----------------------------------|
|-0-1-0-00-1-0-0-1-0-00-1-0-0------|
|-0-1-0-00-1-0-0-1-0-00-1-0-0------|
|-0-1-0-00-1-0-0-1-0-00-1-0-0------|

|----------------------------------|
|----------------------------------|
|----------------------------------|
|-0-1-0-00-1-0-0-1-0-00-1-0-0------|
|-0-1-0-00-1-0-0-1-0-00-1-0-0------|hold notes longer last time round
|-0-1-0-00-1-0-0-1-0-00-1-0-0------|
Comments